Oops, an error
Loading. Please wait.

Waking Up Bass Tab

version 1
version 1

Whole song

Interactive

387 views 1 this week
no commentswrite comment
1 2 3 4 5
please rate
add to favorites
launch autoscroll
font size
0
reset
guitar tuner
Autoscroll
slow
fast
+/-
esc
set tempo
stop
Help us to improve Ultimate-Guitar.com Take our survey!
×
                              WAKING UP (Bassline)
                       As recorded by Funeral For A Friend
          (From the 2003 Album CASUALLY DRESSED & DEEP IN CONVERSATION)

Music by Funeral For A Friend
Arranged by Groove Junky
Transcribed by Groove Junky

Gtr I (Db Ab Db Gb) - 'Bass'
Gtr II (Db Ab Db Gb) - 'Cymbal'

 Intro
  E=120
 2/8       8/8
  Gtr IIGtr I
   E  E     S. S. S +Q   S. S. +S  +E  T T +S    S. S. S +Q   S. S. +S  +Q
|-27-27-||-------------------------------------|------------------------------||
|-------||o------------------------------------|-----------------------------o||
|-------||o-1--1--1-(1)--1--1--(1)-(1)-1h3-(3)-|-----------------------------o||
|-------||-------------------------------------|-0--0--0-(0)--0--0--(0)-(0)---||


    S. S. S +Q   S. S. +S  +E  T T +S
||-------------------------------------|
||o------------------------------------|
||o-1--1--1-(1)--1--1--(1)-(1)-1h3-(3)-|
||-------------------------------------|


 1.                              2E=165
  S. S. S +Q   S. S. +S  +Q       H.      Q
|------------------------------||------------||
|-----------------------------o||------------||
|-----------------------------o||------------||
|-0--0--0-(0)--0--0--(0)-(0)---||-0----------||


   Verse
    $
    Gtr I
    S S E. S E S S E S S E   S S E. S E S S Q  E  3x
||-------------------------|----------------------||
||o------------------------|---------------------o||
||o-1-1----1---1-1---1h3-3-|---------------------o||
||-------------------------|-0-0----0---0-0----0--||


                                  To Coda
  S S E. S E S S E S S E   E E E E E E E E
|------------------------|-----------------||
|------------------------|-----------------||
|-1-1----1---1-1---1h3-3-|-----------------||
|------------------------|-0-0-0-0-0-0-0-0-||


 Chorus 1
  H.      E. S   +S  S S S S S S S +S  S S S S S S S
|--------------|-------------------------------------|
|--------------|-------------------------------------|
|------------3-|-(3)-3-3-3-1h3-3-5-(5)-5-5-5-5p0-0-1-|
|--------------|-------------------------------------|


  +E  S S S S S S S S S S S S S S   +S  S S S S S S S +S  S S S S S S S
|---------------------------------|--------------------------------------|
|-----------5-5-5-5-3-3-3-3-2-2---|-----------5--------------------------|
|-(1)-1-1-1---------------------3-|-(3)-3-3-3---2-3-5-(5)-5-5-5-5---0-1--|
|---------------------------------|-------------------------------5------|


  +E  S S S S S S S S S S S S S S   +S  S S S S S S S +S  S S S S S S S
|---------------------------------|--------------------------------------|
|-----------5-5-5-5-3-3-3-3-2-2---|--------------------------------------|
|-(1)-1-1-1---------------------3-|-(3)-3-3-3-1h3-3-5-(5)-5-5-5-5p0-0-1--|
|---------------------------------|--------------------------------------|


  +E  S S S S S S S S S S S S S S   +S  S S S S S S S S S S S S S E
|---------------------------------|----------------------------------|
|-----------5-5-5-5-3-3-3-3-2-2---|-----------2h3-----------------3\-|
|-(1)-1-1-1---------------------3-|-(3)-3-3-3-----3-5-5-5-5-5-5-5----|
|---------------------------------|----------------------------------|


D.S. al Coda
 6/8
  e e e e e E
|----------------||
|----------------||
|----------------||
|-0-0-0-0-0-0----||


                                    Chorus 2
  &
 8/8
  S S S S S S S S S S S S S S S S    +S  S S S S S S S +S  S S S S S S S
|---------------------------------||--------------------------------------|
|-----------3-3-3-3-----3-3-2-----||--------------------------------------|
|-1-1-1-1-1---------1-1-------1-3-||-(3)-3-3-3-1h3-3-5-(5)-5-5-5-5p0-0-1--|
|---------------------------------||--------------------------------------|


  +E  S S S S S S S S S S S S S S   +S  S S S S S S S +S  S S S S S S S
|---------------------------------|--------------------------------------|
|-----------5-5-5-5-3-3-3-3-2-2---|-----------5--------------------------|
|-(1)-1-1-1---------------------3-|-(3)-3-3-3---2-3-5-(5)-5-5-5-5---0-1--|
|---------------------------------|-------------------------------5------|


  +E  S S S S S S S S S S S S S S   +S  S S S S S S S +S  S S S S S S S
|---------------------------------|--------------------------------------|
|-----------5-5-5-5-3-3-3-3-2-2---|--------------------------------------|
|-(1)-1-1-1---------------------3-|-(3)-3-3-3-1h3-3-5-(5)-5-5-5-5p0-0-1--|
|---------------------------------|--------------------------------------|


                                                                      5/8
  +E  S S S S S S S S S S S S S S   +S  S S S S S S S S S S S S S E    H    E
|---------------------------------|----------------------------------|--------||
|-----------5-5-5-5-3-3-3-3-2-2---|-----------2h3-----------------3\-|--------||
|-(1)-1-1-1---------------------3-|-(3)-3-3-3-----3-5-5-5-5-5-5-5----|--------||
|---------------------------------|----------------------------------|--------||


   Breakdown
   6/8
    e e e e e e   e e e e e e
||--------------|--------------||
||o-------------|-------------o||
||o-------------|-------------o||
||--0-0-0-0-0-0-|-0-0-0-0-0-0--||


    e e e e e e   e e e e e E
||--------------|-------------|
||o-------------|-------------|
||o-1-1-1-1-1-1-|-1-1-1-1-1-1-|
||--------------|-------------|


  e e e e e e   e e e e e e
|-------------|--------------||
|-------------|-------------o||
|-------------|-------------o||
|-0-0-0-0-0-0-|-0-0-0-0-0-0--||


  Q  E Q  E   E E E E E E
|-----------|-------------|
|-----------|-3-3-3-2-2-0-|
|-1--1-1--1-|-------------|
|-----------|-------------|


  Q  E Q  E   E E E E E E
|-----------|-------------|
|-----------|-0---0-2-2-3-|
|-----------|-------------|
|-0--0-0--0-|---0---------|


  Q  E Q  E   E E E E E E
|-----------|-------------|
|-----------|-3-3-3-2-2-5-|
|-1--1-1--1-|-------------|
|-----------|-------------|


    H.        H.     4x
||----------|--------||
||o---------|-------o||
||o---------|-------o||
||--3-------|-3------||


  >
  H.        +H.
|---------|--------||
|---------|--------||
|---------|--------||
|-3-------|-(3)----||


 Outro
 8/8
                       PM
  Wx7          H    E  E  E E
|------------|-----------------|
|------------|------------7----|
|------------|--------------8\-|
|------------|--------(8)------|


  S S S S S S S S S S S S S S S S   S S S S S S S S S S S S S S S S
|---------------------------------|---------------------------------|
|---------------------------------|---------------------------------|
|-1-1-1-1-1-1-1-1-3-3-3-3-3-3-3-3-|-5-5-5-5-5-5-5-5-5-5-5-5-3-3-5-3-|
|---------------------------------|---------------------------------|


                                     1.,2.
    S S S S S S S S S S S S S S S S   S S S S S S S S S S S S S S S S
||----------------------------------|-----------------------------------||
||o---------------------------------|----------------------------------o||
||o-1-1-1-1-1-1-1-1-3-3-3-3-3-3-3-3-|-5-5-5-5-5-5-5-5-5-5-5-5-5-5-5-5--o||
||----------------------------------|-----------------------------------||


  3.
  S S S S S S S S S S S S S S E    e e e e e e e e   e e e e e Q.
|--------------------------------|-----------------|----------------*|
|--------------------------------|-----------------|----------------*|
|-5-5-5-5-5-5-5-5-5-5-5-5-5-5-3\-|-----------------|----------------*|
|--------------------------------|-0-0-0-0-0-0-0-0-|-0-0-0-0-0------*|


Duration Legend
---------------
W - whole; H - half; Q - quarter; E - 8th; S - 16th; T - 32nd; X - 64th; a - acciaccatura
+ - note tied to previous; . - note dotted; .. - note double dotted
Uncapitalized letters represent notes that are staccato (1/2 duration)
Irregular groupings are notated above the duration line
Duration letters will always appear directly above the note/fret number it represents the
duration for.  Duration letters with no fret number below them represent rests.  Multi-
bar rests are notated in the form Wxn, where n is the number of bars to rest for.  Low
melody durations appear below the staff

Tablature Legend
----------------
 h   - hammer-on
 p   - pull-off
 b   - bend
 pb  - pre-bend
 r   - bend release (if no number after the r, then release immediately)
 /\  - slide into or out of (from/to "nowhere")
 s   - legato slide
 S   - shift slide
  - natural harmonic
[n]  - artificial harmonic
n(n) - tapped harmonic
 ~   - vibrato
 tr  - trill
 T   - tap
 TP  - trem. picking
 PM  - palm muting
\n/  - tremolo bar dip; n = amount to dip
 \n  - tremolo bar down
 n/  - tremolo bar up
/n\  - tremolo bar inverted dip
 =   - hold bend; also acts as connecting device for hammers/pulls
 <>  - volume swell (louder/softer)
 x   - on rhythm slash represents muted slash
 o   - on rhythm slash represents single note slash

Misc Legend
-----------
 |  - bar
||  - double bar
||o - repeat start
o|| - repeat end
*|  - double bar (ending)
 :  - bar (freetime)
 $  - Segno
 &  - Coda
Tempo markers -  = BPM(8/16=s8/s16), where s8 = swing 8ths, s16 = swing 16ths


***************************************************************************************
* Generated using Power Tab Editor by Brad Larsen - http://powertab.guitarnetwork.org *
***************************************************************************************


Downloaded from www.taborama.com

================================================================================
Suggest correction
Give kudos to tab author, rate the tab!
1 2 3 4 5
comments
print report bad tab
guest
You may want to rate the tab now too:
select rating
Please do not post tabs as comments. Select "correction" instead!