Oops, an error
Loading. Please wait.

Waking Up Tab

version 3
version 3

Whole song

Interactive

1,086 views 1 this week
no commentswrite comment
1 2 3 4 5
please rate
add to favorites
launch autoscroll
font size
0
reset
how to read this tab
guitar tuner
Autoscroll
slow
fast
+/-
esc
set tempo
stop
Help us to improve Ultimate-Guitar.com Take our survey!
×
Contributor
---------------------------------------------------------------------
                 Funeral for a Friend – Waking Up
---------------------------------------------------------------------
Tabbed by: Nirvanaboy183
Email: scottdaniels183@hotmail.com

Tuning: Drop C#
C# G# C# F# A# D#

Intro Gtr1
D#|--------------------------|--------------------------------------|
A#|--------------------------|--------------------------------------|
F#|-10------10------0-----2--|----------10-----10----2~-------------|
C#|-10------10------3-----3--|--x3------10-----10----3~-------------|
G#|--8-------8------0-----0--|-----------8------8----0~-------------|
C#|--8-------8------0-----0--|-----------8------8----0~-------------|
Gtr2
D#|------------------------------|----------------------------------|
A#|------------------15~---15~---|----------------------------------|
F#|--------------------14~---14~-|----------------------------------|
C#|--14~-----14~-----------------|-x3------14~----14~---------------|
G#|----15~-----15~---------------|-----------15~----15~-------------|
C#|------------------------------|----------------------------------|

Verse PM
D#|-----------------------------------------------------------------|
A#|------------------------------h----------------------------------|
F#|-----2-------3-----0---------0-2--------p-----32---0-------------|
C#|---33-3---333-3---3--320---33------333-3-2-------3-------x3------|
G#|---------------------------------------------3-------------------|
C#|-----------------------------------------------------------------|

D#|-----------------------------------------------------------------|
A#|-----------------------------------------------------------------|
F#|-----2-------3-----0----------10---------------------------------|
C#|---33-3---333-3--3---320------x---x16----------------------------|
G#|------------------------------8----------------------------------|
C#|-----------------------------------------------------------------|

D#|-----------------------------------------------------------------|
A#|-----------------------------------------------------------------|
F#|-1717171717--15151515--1414141414--12----------------------------|
C#|--x-x-x-x-x---x-x-x-x---x-x-x-x-x---x----------------------------|
G#|-1515151515--13131313--1212121212--10----------------------------|
C#|-----------------------------------------------------------------|

Chorus
D#|-----88-----------------88-------88---------------------------88-|
A#|5-566----5-565-------566---5-565-----5-565------5-565------566---|
F#|--------------757--7----------------------757--------75--7-------|
C#|-----------------------------------------------------------------|
G#|-----------------------------------------------------------------|
C#|-----------------------------------------------------------------|

D#|-----88--------------------------88-------88-------88------------|
A#|5-566----5-565-----5-565------566----5-565----5-565----5-565-----|
F#|--------------757-------757--7------------------------------757--|
C#|-----------------------------------------------------------------|
G#|-----------------------------------------------------------------|
C#|-----------------------------------------------------------------|

D#|-----------------------------------------------------------------|
A#|--565------------------------------------------------------------|
F#|-----757---------------------------------------------------------|
C#|-----------------------------------------------------------------|
G#|-----------------------------------------------------------------|
C#|-----------------------------------------------------------------|

D#|-----------|
A#|-----------|
F#|-----------|
C#|--00000--2-|
G#|--00000--0-|
C#|--00000----|

Verse

Chorus
D#|-----88-----------------88-------88---------------------------88-|
A#|5-566----5-565-------566---5-565-----5-565------5-565------566---|
F#|--------------757--7----------------------757--------75--7-------|
C#|-----------------------------------------------------------------|
G#|-----------------------------------------------------------------|
C#|-----------------------------------------------------------------|

D#|-----88--------------------------88-------88-------88------------|
A#|5-566----5-565-----5-565------566----5-565----5-565----5-565-----|
F#|--------------757-------757--7------------------------------757--|
C#|-----------------------------------------------------------------|
G#|-----------------------------------------------------------------|
C#|-----------------------------------------------------------------|

D#|-----------------------------------------------------------------|
A#|--565------------------------------------------------------------|
F#|-----757---------------------------------------------------------|
C#|-----------------------------------------------------------------|
G#|-----------------------------------------------------------------|
C#|-----------------------------------------------------------------|

D#|-----------------------------------------------------------------|
A#|-gtr1----gtr2-----Both-------------------------------------------|
F#|-----------------------------------------------------------------|
C#|--000-----00------000000000000000000000000-----------------------|
G#|--000-----00------000000000000000000000000-----------------------|
C#|--000-----00------000000000000000000000000-----------------------|
Pm   ...     ..      ………………………………………………………………

D#|-----------------------------------------------------------------|
A#|-----------------------------------------------------------------|
F#|-----------------------------------------------------------------|
C#|-888888888888-000000000000-888888888888-000000000000-------------|
G#|-888888888888-000000000000-888888888888-000000000000-------------|
C#|-888888888888-000000000000-888888888888-000000000000-------------|
PM ………………………………………………………………………………………………………………………………………………

D#|-----------------------------------------------------------------|
A#|-----------------------------------------------------------------|
F#|-----------------------------------------------------------------|
C#|888888888888-000000000000-888888888888-3~-3~-3~-3~-3~-3~-3~-3~-3~|
G#|888888888888-000000000000-888888888888-3~-3~-3~-3~-3~-3~-3~-3~-3~|
C#|888888888888-000000000000-888888888888-3~-3~-3~-3~-3~-3~-3~-3~-3~|

Quiet Middle bit Gtr1 x4
D#|-----------------------------------------------------------------|
A#|-----------------------------------------------------------------|
F#|10101010----1010--12121212----1212-10101010/12-1212--9999/10-1010|
C#|-8-8-8-8h10-1010--10101010----1010--x-x-x-x/-x--x-x--xxxx/10--x-x|
G#|-8-8-8-8-----8-8--10101010h12-1212--8-8-8-8/10-1010--7777/-8--8-8|
C#|-8-8-8-8-----8-8--10101010----1010--0-0-0-0/-0--0-0--0000/-0--0-0|

Gtr 2 x2 this comes in after gtr1 has been through twice
D#|-----------------------------------------------------------------|
A#|-----------------------------------------------------------------|
F#|--10---9---------10---9---------10---9--------9--10--12----------|
C#|----------10-------------10-------------10-----------------------|
G#|-----------------------------------------------------------------|
C#|-----------------------------------------------------------------|

End Gtr1 x4
D#|-----------------------------------------------------------------|
A#|-----------------------------------------------------------------|
F#|-----------------------------------------------------------------|
C#|-----8-8h10-10---------------------------------------------------|
G#|-------------------10---10h12--12---8-8h10-10--8-1212h13-12------|
C#|---88-8----8---1010--10------10---00-0----0---0-0-------0--------|

Gtr2 x4
D#|-----------------------------------------------------------------|
A#|--666-555-----666-555-----666-555-----555-666-88-----------------|
F#|----------55----------55----------55-----------------------------|
C#|-----------------------------------------------------------------|
G#|-----------------------------------------------------------------|
C#|-----------------------------------------------------------------|

Both Gtrs
D#|----------------|
A#|----------------|
F#|----------------|
C#|-0000000000000--|
G#|-0000000000000--|
C#|-0000000000000--|
PM………………………………………………

| /  slide up
| \  slide down
| h  hammer-on
| p  pull-off
| ~  hold note
| +  harmonic
| x  Mute note

comments
We did not receive enough feedback on this tab! Please rate:
print report bad tab
1 2 3 4 5
I want to post or [tab]
guest
You may want to rate the tab now too:
select rating
Please do not post tabs as comments. Select "correction" instead!