Oops, an error
Loading. Please wait.

Walk Away Bass Tab

version 1
version 1

Whole song

Interactive

1,012 views 1 this week
5 commentsread comments
1 2 3 4 5
accurate
x 3
add to favorites
launch autoscroll
font size
0
reset
guitar tuner
Autoscroll
slow
fast
+/-
esc
set tempo
stop
Help us to improve Ultimate-Guitar.com Take our survey!
×
Author
Walk Away - Funeral For A Friend

Intro
g------------------------------------------------------------------|
d------------------------------------------------------------------|
a-5-5-5-5-5-5-5-5--------------------------------------------------|
E-----------------5-5-5-5-5-5-5-5-2-2-2-2-2-2-2-2-3-3-3-3-3-3-3-3--|


Verse
g------------------------------------------------------------------|
d------------------------------------------------------------------|
a-3-3-3-3-3-3-3-3--------------------------------------------------|
E-----------------3-3-3-3-3-3-3-3-0-0-0-0-0-0-0-0-1-1-1-1-1-1-1-1--| x2


g------------------------------------------------------------------|
d------------------------------------------------------------------|
a-3-3-3-3-3-3-3-3--------------------------------------------------|
E-----------------3-3-3-3-3-3-3-3-0-0-0-0-0-0-0-0-1-1-1-1-1-1-1-1--| x2


Chorus
g------------------------------------------------------------------|
d------------------------------------------------------------------|
a-5-5-5-5-5-5-5-5--------------------------------------------------|
E-----------------5-5-5-5-5-5-5-5-2-2-2-2-2-2-2-2-3-3-3-3-3-3-3-3--|x2



g------------------------------------------------------------------|
d------------------------------------------------------------------|
a-3-3-3-3-3-3-3-3--------------------------------------------------|
E-----------------3-3-3-3-3-3-3-3-0-0-0-0-0-0-0-0-1-1-1-1-1-1-1-1--| x2


g------------------------------------------------------------------|
d------------------------------------------------------------------|
a-3-3-3-3-3-3-3-3--------------------------------------------------|
E-----------------3-3-3-3-3-3-3-3-0-0-0-0-0-0-0-0-1-1-1-1-1-1-1-1--| x2


Chorus
g------------------------------------------------------------------|
d------------------------------------------------------------------|
a-5-5-5-5-5-5-5-5--------------------------------------------------|
E-----------------5-5-5-5-5-5-5-5-2-2-2-2-2-2-2-2-3-3-3-3-3-3-3-3--|x2


g-------------------|
d-------------------|
a-------------------|
E-------------------| 


g------------------------------------------------------------------|
d------------------------------------------------------------------|
a-3-3-3-3-3-3-3-3--------------------------------------------------|
E-----------------3-3-3-3-3-3-3-3-0-0-0-0-0-0-0-0-1-1-1-1-1-1-1-1--| x2


Ending
g------------------------------------------------------------------|
d------------------------------------------------------------------|
a-5-5-5-5-5-5-5-5--------------------------------------------------|
E-----------------5-5-5-5-5-5-5-5-2-2-2-2-2-2-2-2-3-3-3-3-3-3-3-3--|x2
Suggest correction
Give kudos to tab author, rate the tab!
1 2 3 4 5
comments
print report bad tab
5 comments total. Showing first comments.
0 reply
ArmsRace 10 wrote on October 7 2007, 11:07 am

There's a Key change at the end
last chorus


should be



G|
D|
A|55555555
E| 55555555-22222222-33333333

end on

A| - 5 -



and im not sure about all those 10's, 12's and 9's


i tend to play
G|
D|
A|33333333
E| 33333333-0000000-11111111

Most of the way through
but , either way works i guess

0 reply
ArmsRace 10 wrote on October 7 2007, 11:08 am

oh those werent supposed to overlap.

but you get where im going with it

0 reply
Alexxfrost 121 wrote on October 22 2007, 04:34 pm

yeah
your probably right there :)
i just had a guess lol

guest
You may want to rate the tab now too:
select rating
Wanna post a correction for this tab? Suggest correction