Oops, an error
Loading. Please wait.

Walk Away Tab

version 1
version 1

Whole song

Interactive

3,172 views 1 this week
6 commentsread comments
1 2 3 4 5
accurate
x 1
add to favorites
launch autoscroll
font size
0
reset
how to read this tab
guitar tuner
Tab Pro tools
  • play this tab
  • loop segment
  • change instrument
  • show fretboard
  • metronome
Autoscroll
slow
fast
+/-
esc
set tempo
stop
Contributor
Funeral for a friend - Walk Away,
This is the new song from Tales Dont Tell Themselves
Took me 10 mins to work it out and 15 mins to tab lmao!


Tabbed by Pete

Guitar 1

Intro

e-8-7-8-7-8-7-8-7-10-8-10-8-10-8-10-8-8--|
b--8-8-8-8-8-8-8-8--8-8--8-8--8-8--8-8---|
g----------------------------------------|
d----------------------------------------|
a----------------------------------------|
E----------------------------------------| x2

Verse

------------------------------------------------------------------|
------------------------------------------------------------------|
------------------------------------------------------------------|
------------------------------------------------------------------|
-3-3-3-3-3-3-3-3--------------------------------------------------|
-----------------3-3-3-3-3-3-3-3-0-0-0-0-0-0-0-0-1-1-1-1-1-1-1-1--| x2

------------------------------------------------------------------------------------------|
------------------------------------------------------------------------------------------|
------------------------------------------------------------------------------------------|
-------------------------9-9-9-9-9-9-9-9-10-10-10-10-10-10-10-10-12-12-12-12-12-12-12-12--|
-10-10-10-10-10-10-10-10------------------------------------------------------------------|
------------------------------------------------------------------------------------------| x2

---------3----------3----------3----------3--|
------1----------1----------1----------1-----|
---0----------0----------0----------0--------|
---------------------------------------------|
-3-------------------------------------------|
-----------3----------0----------1-----------| x2


Guitar 2

Intro


------------------------------------------------------------------|
------------------------------------------------------------------|
-5-5-5-5-5-5-5-5--------------------------------------------------|
-5-5-5-5-5-5-5-5-5-5-5-5-5-5-5-5-2-2-2-2-2-2-2-2-3-3-3-3-3-3-3-3--|
-3-3-3-3-3-3-3-3-5-5-5-5-5-5-5-5-2-2-2-2-2-2-2-2-3-3-3-3-3-3-3-3--|
-----------------3-3-3-3-3-3-3-3-0-0-0-0-0-0-0-0-1-1-1-1-1-1-1-1--| x2


------------------------------------------------------------------|
------------------------------------------------------------------|
------------------------------------------------------------------|
------------------------------------------------------------------|
-3-3-3-3-3-3-3-3--------------------------------------------------|
-----------------3-3-3-3-3-3-3-3-0-0-0-0-0-0-0-0-1-1-1-1-1-1-1-1--| x6


do the whole thing x2


At 2:58 play the intro 2 fretts higher!
comments
We did not receive enough feedback on this tab! Please rate:
print report bad tab
1 2 3 4 5
6 comments total. Showing first comments.
0 reply
amnon wrote on June 9 2007, 02:57 pm

omg. hilarious. :) you are really the geniusguitarist!!!!! no thanks. somebody has to do the job.

0 reply
geniusguitarist wrote on June 9 2007, 04:39 pm

Dont be harsh! its better than no tab at all! well i can play well and dont need your stupid comment!

0 reply
karlos89 wrote on June 14 2007, 12:34 pm

Tuning is Db Ab Db Gb Bb Eb mate make it relate to that tuning and it will sound good I can see where you're coming from mate!

I want to post or [tab]
guest
You may want to rate the tab now too:
select rating
Please do not post tabs as comments. Select "correction" instead!