Oops, an error
Loading. Please wait.

Walk Away Tab

version 2
version 2

Whole song

Interactive

4,071 views 1 this week
6 commentsread comments
1 2 3 4 5
accurate
x 9
add to favorites
launch autoscroll
font size
0
reset
how to read this tab
guitar tuner
Tab Pro tools
  • play this tab
  • loop segment
  • change instrument
  • show fretboard
  • metronome
Autoscroll
slow
fast
+/-
esc
set tempo
stop
Contributor
Funeral For A Friend - Walk Away

GUITAR 1
e-8-7-8-7-8-7-8-7-10-8-10-8-10-8-10-8-8--|
b--8-8-8-8-8-8-8-8--8-8--8-8--8-8--8-8---|
g----------------------------------------|
d----------------------------------------|
a----------------------------------------|
E----------------------------------------| x2

GUITAR 2
e---------------------------|
b---------------------------|
g---6-----------------------|
d---6-x16-6-----3-----4-----|
a---4-----6-x16-3-x16-4-x16-|
E---------4-----1-----2-----| x2


GUITAR 1
e------------------------------------------------------------------------------------------|
b------------------------------------------------------------------------------------------|
g------------------------------------------------------------------------------------------|
d-------------------------9-9-9-9-9-9-9-9-10-10-10-10-10-10-10-10-12-12-12-12-12-12-12-12--|
a-10-10-10-10-10-10-10-10------------------------------------------------------------------|
E------------------------------------------------------------------------------------------| x2

GUITAR 2
e---------------|
b---------------|
g---------------|
d---------------|
a---------------|
E---------------|


GUITAR 1
e---------3----------3----------3----------3--|
b------1----------1----------1----------1-----|
g---0----------0----------0----------0--------|
d---------------------------------------------|
a-3-------------------------------------------|
E-----------3----------0----------1-----------| x2

GUITAR 2
e------------------------------------------------------------------|
b------------------------------------------------------------------|
g-5-5-5-5-5-5-5-5--------------------------------------------------|
d-5-5-5-5-5-5-5-5-5-5-5-5-5-5-5-5-2-2-2-2-2-2-2-2-3-3-3-3-3-3-3-3--|
a-3-3-3-3-3-3-3-3-5-5-5-5-5-5-5-5-2-2-2-2-2-2-2-2-3-3-3-3-3-3-3-3--|
E-----------------3-3-3-3-3-3-3-3-0-0-0-0-0-0-0-0-1-1-1-1-1-1-1-1--| x2


GUITAR 1
e-8-7-8-7-8-7-8-7-10-8-10-8-10-8-10-8-8--|
b--8-8-8-8-8-8-8-8--8-8--8-8--8-8--8-8---|
g----------------------------------------|
d----------------------------------------|
a----------------------------------------|
E----------------------------------------| x2

GUITAR 2
e---------------------------|
b---------------------------|
g---6-----------------------|
d---6-x16-6-----3-----4-----|
a---4-----6-x16-3-x16-4-x16-|
E---------4-----1-----2-----| x2


GUITAR 1
e---------3----------3----------3----------3--|
b------1----------1----------1----------1-----|
g---0----------0----------0----------0--------|
d---------------------------------------------|
a-3-------------------------------------------|
E-----------3----------0----------1-----------| x2

GUITAR 2
e------------------------------------------------------------------|
b------------------------------------------------------------------|
g-5-5-5-5-5-5-5-5--------------------------------------------------|
d-5-5-5-5-5-5-5-5-5-5-5-5-5-5-5-5-2-2-2-2-2-2-2-2-3-3-3-3-3-3-3-3--|
a-3-3-3-3-3-3-3-3-5-5-5-5-5-5-5-5-2-2-2-2-2-2-2-2-3-3-3-3-3-3-3-3--|
E-----------------3-3-3-3-3-3-3-3-0-0-0-0-0-0-0-0-1-1-1-1-1-1-1-1--| x2


GUITAR 1
e-8-7-8-7-8-7-8-7-10-8-10-8-10-8-10-8-8--|
b--8-8-8-8-8-8-8-8--8-8--8-8--8-8--8-8---|
g----------------------------------------|
d----------------------------------------|
a----------------------------------------|
E----------------------------------------| x2  Quietly

GUITAR 2
e---------------|
b---------------|
g---------------|
d---------------|
a---------------|
E---------------|


GUITAR 1
e-8-7-8-7-8-7-8-7-10-8-10-8-10-8-10-8-8--|
b--8-8-8-8-8-8-8-8--8-8--8-8--8-8--8-8---|
g----------------------------------------|
d----------------------------------------|
a----------------------------------------|
E----------------------------------------| x4

GUITAR 2
e---------------------------|
b---------------------------|
g---6-----------------------|
d---6-x16-6-----3-----4-----|
a---4-----6-x16-3-x16-4-x16-|
E---------4-----1-----2-----| x2
comments
print report bad tab
6 comments total. Showing first comments.
+1 reply
MyNextPart wrote on January 9 2008, 12:57 pm

Great tab, thanks alot ^^

+1 reply
gflip69 wrote on January 22 2008, 02:57 am

guitar 2 should be played like the chorus

it should be played with the C note then G note not C# and G#

There is a
key change at the end too.

0 reply
emolove wrote on April 15 2008, 07:31 pm

at the the end it goes one tone up

I want to post or [tab]
guest
You may want to rate the tab now too:
select rating
Please do not post tabs as comments. Select "correction" instead!