Oops, an error
Loading. Please wait.

Walk Away Tab

version 3
version 3

Whole song

Interactive

1,380 views 1 this week
2 commentsread comments
1 2 3 4 5
please rate
add to favorites
launch autoscroll
font size
0
reset
how to read this tab
guitar tuner
Autoscroll
slow
fast
+/-
esc
set tempo
stop
Help us to improve Ultimate-Guitar.com Take our survey!
×
GUITAR 1
E-8-7-8-7-8-7-8-7-10-8-10-8-10-8-10-8----|
B--8-8-8-8-8-8-8-8--8-8--8-8--8-8--8-8---|
G----------------------------------------|
D----------------------------------------|
A----------------------------------------|
E----------------------------------------| x2

GUITAR 2
e------------------------------------------------------------------|
b------------------------------------------------------------------|
g-6666666666666666-------------------------------------------------|
d-6666666666666666666666666666666633333333333333334444444444444444-|
a-4444444444444444666666666666666633333333333333334444444444444444-|
E-----------------444444444444444411111111111111112222222222222222-| x2


GUITAR 1
e------------------------------------------------------------------------------------------|
b------------------------------------------------------------------------------------------|
g------------------------------------------------------------------------------------------|
d-------------------------9-9-9-9-9-9-9-9-10-10-10-10-10-10-10-10-12-12-12-12-12-12-12-12--|
a-10-10-10-10-10-10-10-10------------------------------------------------------------------|
E------------------------------------------------------------------------------------------| x2

GUITAR 2 plays nothing

GUITAR 1
e----3------3------3------3--|
b---1------1------1------1---|
g--0------0------0------0----|
d----------------------------|
a-3--------------------------|
E--------3------0------1-----| x2

GUITAR 2
e------------------------------------------------------------------|
b------------------------------------------------------------------|
g-5-5-5-5-5-5-5-5--------------------------------------------------|
d-5-5-5-5-5-5-5-5-5-5-5-5-5-5-5-5-2-2-2-2-2-2-2-2-3-3-3-3-3-3-3-3--|
a-3-3-3-3-3-3-3-3-5-5-5-5-5-5-5-5-2-2-2-2-2-2-2-2-3-3-3-3-3-3-3-3--|
E-----------------3-3-3-3-3-3-3-3-0-0-0-0-0-0-0-0-1-1-1-1-1-1-1-1--| x2


GUITAR 1
e-8-7-8-7-8-7-8-7-10-8-10-8-10-8-10-8----|
b--8-8-8-8-8-8-8-8--8-8--8-8--8-8--8-8---|
g----------------------------------------|
d----------------------------------------|
a----------------------------------------|
E----------------------------------------| x2

GUITAR 2
e------------------------------------------------------------------|
b------------------------------------------------------------------|
g-6666666666666666-------------------------------------------------|
d-6666666666666666666666666666666633333333333333334444444444444444-|
a-4444444444444444666666666666666633333333333333334444444444444444-|
E-----------------444444444444444411111111111111112222222222222222-| x2


GUITAR 1 plays nothing

GUITAR 2
e------------------------------------------------------------------|
b------------------------------------------------------------------|
g-5-5-5-5-5-5-5-5--------------------------------------------------|
d-5-5-5-5-5-5-5-5-5-5-5-5-5-5-5-5-2-2-2-2-2-2-2-2-3-3-3-3-3-3-3-3--|
a-3-3-3-3-3-3-3-3-5-5-5-5-5-5-5-5-2-2-2-2-2-2-2-2-3-3-3-3-3-3-3-3--|
E-----------------3-3-3-3-3-3-3-3-0-0-0-0-0-0-0-0-1-1-1-1-1-1-1-1--| x2


GUITAR 1
e-8-7-8-7-8-7-8-7-10-8-10-8-10-8-10-8----|
b--8-8-8-8-8-8-8-8--8-8--8-8--8-8--8-8---|
g----------------------------------------|
d----------------------------------------|
a----------------------------------------|
E----------------------------------------| x2  Softly

GUITAR 2 plays nothing


GUITAR 1
e-10--9--10--9--10--9--10--9--10--12--10--12--10--12--10--12-----|
b---10-10--10-10--10-10--10-10--10--10--10--10--10--10--10--10---|
g----------------------------------------------------------------|
d----------------------------------------------------------------|
a----------------------------------------------------------------|
E----------------------------------------------------------------| x4

GUITAR 2
e------------------------------------------------------------------|
b------------------------------------------------------------------|
g-8888888888888888-------------------------------------------------|
d-8888888888888888888888888888888855555555555555556666666666666666-|
a-6666666666666666888888888888888855555555555555556666666666666666-|
E-----------------666666666666666633333333333333334444444444444444-| x2
Suggest correction
Give kudos to tab author, rate the tab!
1 2 3 4 5
comments
print report bad tab
2 comments total.
0 reply
ibanezeric82 103 wrote on July 11 2009, 03:46 am

Drop Db

0 reply
wisemancheez 10 wrote on September 27 2010, 08:57 am

perfect dude you even included the key change at the end! :)

guest
You may want to rate the tab now too:
select rating
Wanna post a correction for this tab? Suggest correction