Oops, an error
Loading. Please wait.

Waterfront Danceclub Bass Tab

version 1
version 1

Whole song

Interactive

713 views 1 this week
5 commentsread comments
1 2 3 4 5
1 last vote to show rating
add to favorites
launch autoscroll
font size
0
reset
guitar tuner
Autoscroll
slow
fast
+/-
esc
set tempo
stop
Help us to improve Ultimate-Guitar.com Take our survey!
×
Author
Intro
--------------------------------|
--------------------------  X16-|
--------------------------------|
2-2-2-2------------2-2-2-2------|

00:27
--------------------------|
--------------------------| X8
------------5--5----------|
-2--2-2-5-7-----7-5-7-9---|

00:46
--------------------------|
--------------------------|
--------------------------|
-2-2-2----3----5--5-5-5-5-|

00:54
------------------------------|
----2-2------2-2--------------|   X4
------------------------------|
2-2------2-2------5-5--7-7----|


01:15
--------------------------|
--------------------------| X8
------------5--5----------|
-2--2-2-5-7-----7-5-7-9---|

01:37
--------------------------|
--------------------------|
--------------------------|
-2-2-2----3----5--5-5-5-5-|

01:47
------------------------------|
----2-2------2-2--------------|   X4
------------------------------|
2-2------2-2------5-5--7-7----|

02:11(Chorus)
--------------------------|
--------------------------|
--------------------------|
5-5-5-5-5-5-5-5-5-5-5-5-5-|    X2

--------------------------|
--------------------------|
--------------------------|
0-0-0-0-0-00-0-0-0-0-0-0--|    X2

--------------------------|
--------------------------|
3-3-3-3-3-33-3-3-3-3-3-3--|    X2
--------------------------|

--------------------------|
--------------------------|
--------------------------|    X2
0-0-0-0-0-00-0-0-0-0-0-0--|

^^^^^^^^^^^^^^^^^^^
PLAY ALL THIS TWICE

02:46(BRIDGE)

--------------------------|
--------------------------| X8
------------5--5----------|
-2--2-2-5-7-----7-5-7-9---|

03:04

--------------------------|
--------------------------|
--------------------------|
5-5-5-5-5-5-55-5-5-5-5-5--|      X2

--------------------------|
--------------------------|
--------------------------|
0-0-0-0-0-0-00-0-0-0-0-0--|      X2

-----------------------------------------------------------|
10-10-10-10-10-10-10-10-10  (THAT'S TEN, NOT ONE AND ZERO--|
-----------------------------------------------------------|
-----------------------------------------------------------|      X2

-------------------------------------------------------------|
12-12-12-12-12-12-12-12-12  (THAT'S TWELVE, NOT ONE AND TWO--|
-------------------------------------------------------------|
-------------------------------------------------------------|

03:22 (CHORUS)

--------------------------|
--------------------------|
--------------------------|
5-5-5-5-5-5-5-5-5-5-5-5-5-|    X2

--------------------------|
--------------------------|
--------------------------|
0-0-0-0-0-00-0-0-0-0-0-0--|    X2

--------------------------|
--------------------------|
3-3-3-3-3-33-3-3-3-3-3-3--|    X2
--------------------------|

--------------------------|
--------------------------|
--------------------------|    X2
0-0-0-0-0-00-0-0-0-0-0-0--|

^^^^^^^^^^^^^^^^^^^
PLAY ALL THIS TWICE

03:58 (OUTRO)

----------------------------------|
---------2-------------2----2-----|
----------------------------------|
2-2-2-2-------2-2-2-2----2-2------|    X3

-----------------------------|
-----------------------------|
-----------------------------|
7-7-7-7-7-12-12-12-12-12(12)-|
Suggest correction
Give kudos to tab author, rate the tab!
1 2 3 4 5
comments
print report bad tab
5 comments total. Showing first comments.
0 reply
TommyGun91 903 Dec 21, 2008 10:45 AM

Finally someone's tabbed it out =D!
I haven't had the time to do it.
But it sounds good to me :D

0 reply
SpeedMetalFTW 31 Dec 25, 2008 12:58 PM

EVERYONE THIS TAB IS IN DROP C#

0 reply
diamondsfan1 10 Jan 07, 2009 01:24 PM

nah i dont like it soz, theres a lot missing

guest
You may want to rate the tab now too:
select rating
Wanna post a correction for this tab? Suggest correction