Oops, an error
Loading. Please wait.

Waterfront Danceclub Tab

version 1
version 1

Whole song

Interactive

2,984 views 1 this week
no commentswrite comment
1 2 3 4 5
x 3
add to favorites
launch autoscroll
font size
0
reset
how to read this tab
guitar tuner
Autoscroll
slow
fast
+/-
esc
set tempo
stop
Help us to improve Ultimate-Guitar.com Take our survey!
×
Funeral for a Friend
Waterfront Danceclub
tuning - c#


intro

-0-0-0---------0-0-0----------------------------|
-0-0-0---------0-0-0----------------------------|
-0-0-0---------0-0-0----------------------------|    x 4
-0-0-0---------0-0-0----------------------------|
-2-2-2---------2-2-2----------------------------|
-2-2-2---------2-2-2----------------------------|


verse

:Scarred open wounds
--------------------------------------|
--------------------------------------|
------------7-7-----------------------|
-2--2-2-5-7-----7-5-7-9---------------|
-2--2-2-5-7-5-5-7-5-7-9---------------|
-2--2-2-5-7-----7-5-7-9---------------|


pre-chorus
guitar 1 does these 2 riffs
-----------------------------|
-----------------------------|
-5-5-5----5--7-5-5-5----5----| twice
-5-5-5--5-5----5-5-5--5-5--7-|
-3-3-3----3----3-3-3----3----|
-----------------------------|

then

-----------------------------|
-----------------------------|
-7-7-7----7--7-7-7-7----7----| also twice
-7-7-7--5-7----7-7-7--5-7--7-|
-5-5-5----5----5-5-5----5----|
-----------------------------|

whilst guitar two does this

-----------------------------|
-----------------------------|
-9-9-9-9-9-9-9-9-9-9-9-9-----| twice
-----------------------------|
-7-7-7-7-7-7-7-7-7-7-7-7-----|
-----------------------------|


-----------------------------|
-----------------------------|
-11-11-11-11-11-11-11-11-----| twice
-----------------------------|
-9-9-9-9-9-9-9-9-9-9-9-9-----|
-----------------------------|


then Chorus

guitar 1
------------------------------|
------------------------------|
------------------------------|
------5-5-------5-5-----------|
-2-2--3-3-2-2---3-3-----------|
-2-2------2-2-----------------|       repeat both 4 times

---------------------------------|
---------------------------------|
---------------------------------|
-------------7-7-7-7-7-7-7-7-7-7-|
-2-2-2-5-5-5-5-5-5-5-5-5-5-5-5-5-|
-2-2-2-5-5-5---------------------|


whilst guitar 2 does...

----17-14-15-14----------14-15-14----|
-16-------------15----17----------15-|
-------------------16----------------|
-------------------------------------|
-------------------------------------|
-------------------------------------|

-----------------------------------|
-----------------------------------|
-16----14----------------14-----16-|
-------------17-----16-------------|
-----------------------------------|
-----------------------------------|

then it does verse again

however guitar does

-----------------------------|
-----------------------------|
-----------------------------|  4 times
-----------------------------|
-2-2-2-2-------0-------------|
-2-2-2-2-------0-------------|

-----------------------------|
-----------------------------|
-----------------------------|
-----------------------------| once
-5-5-5-5-------2-------------|
-5-5-5-5-------2-------------|

-----------------------------|
-----------------------------|
-----------------------------|
-----------------------------| once
-5-5-5-5-------7-------------|
-5-5-5-5-------7-------------|

------------------------------|
------------------------------|
------------------------------|
------------------------------| twice
-2-2-2-2----------------------|
-2-2-2-2----------------------|

then back to pre-chorus then chorus then

breakdown/interlude whatever u want to call it

either guitar does

-------15-14--------------------|
----------------15--------------|
-12----------------14--12---11--|  7 times
--------------------------------|
--------------------------------|
--------------------------------|

---
---
---
---    x 24
-5-
-5-

---
---
---
---    x 24
-0-
-0-

---
---
---
---    x 24
-10-
-10-

---
---
---
---    x 24
-12-
-12-


then repeat those 4 again then

strum

---
---
---
---
-2-
-2-
                     repeat  again
then strum
---
---
---
---
-0-
-0-


and i cant be bothered doing anymore ill do it later sorry

there will be a guitar pro of it soon



-----------------------------|
-----------------------------|
-----------------------------|
-----------------------------|
-----------------------------|
-----------------------------|
Suggest correction
Give kudos to tab author, rate the tab!
1 2 3 4 5
comments
print report bad tab
guest
You may want to rate the tab now too:
select rating
Wanna post a correction for this tab? Suggest correction