Oops, an error
Loading. Please wait.

Waterfront Danceclub Bass Tab

version 2
version 2

Whole song

Interactive

144 views 1 this week
no commentswrite comment
1 2 3 4 5
3 more votes to show rating
add to favorites
launch autoscroll
font size
0
reset
guitar tuner
Autoscroll
slow
fast
+/-
esc
set tempo
stop
Help us to improve Ultimate-Guitar.com Take our survey!
×
Difficulty
Tuning
intermediate
C# G# C# F# A# D#
-------------------------------------------------------------------------------
			          Waterfront Danceclub- Funeral For A friend
-------------------------------------------------------------------------------

Tabbed By : Chris Jacobs 
e-mail: chrisjacobsmailbox@yahoo.co.uk

Tuning: C#/Db

Intro
F#|--------------------------------|
C#|--------------------------------|   x$
G#|--------------------------------|
C#|2-2-2----------------2-2-2------|

--------------------------|
--------------------------| X2
------------5--5----------|
-2--2-2-5-7-----7-5-7-9---|


Verse- Main Riff
--------------------------|
--------------------------| X8
------------5--5----------|
-2--2-2-5-7-----7-5-7-9---|

00:45- (Lights that burn so bright)
----------------------------------|
----------------------------------|
-333333333333333-5555555555555555-|
----------------------------------|

00:55- (The Light has faded)
------------------------------|
------------------------------|   X4
----33--------33---------55555|
22------22-------22222-55-----|



Verse part 2- 01:20(Destroy!)
-----------------------------|
-----------------------------|
-----------------------------|
-2-2222-2-2222-2-2222-2-2222-|

------------------------------|
------------------------------|
------------------------------|
-2-555-5-5555-5/7-2222-22-2222|


01:38- (Wards of empty patients)
-----------------------------------|
-----------------------------------|
-33333333(x4)-55555555(x4)-/7/12/2-|
-----------------------------------|

01:47- (The Light has faded)
------------------------------|
------------------------------|   X4
----33--------33---------55555|
22------22-------22222-55-----|

------------------------------------|
------------------------------------|
-------------5555555555555555-------|
--3/55555555------------------------|


Chorus

--------------------------------------------------------------------|
--------------------------------------------------------------------| x2
--------------------------------------333333333333------------------|
5/7-555555555555-5/7-000000000000-5/7--------------5/7-000000000000-|    


Bridge- Just Bass

--------------------------|
--------------------------| X6
------------5--5----------|
-2--2-2-5-7-----7-5-7-9---|

----------------------|
----------------------| X2
----------5-----------|
-00-2-5-7---7-5-7-9---|

Breakdown 03:03- (The fantasy of reality)

--------------------------|
--------------------------| x 2
333333333333-555555555555-|
--------------------------|                               

--------------------------------------------------|
101010101010101010101010-121212121212121212121212-| x2
--------------------------------------------------|
--------------------------------------------------|                               
                                                                          
Chorus
--------------------------------------------------------------------|
--------------------------------------------------------------------| x2
--------------------------------------333333333333------------------|
5/7-555555555555-5/7-000000000000-5/7--------------5/7-000000000000-|    

OUTRO

---------------------------|
---------------------------| x3
-----3----------3-----3----|
2222-------2222----22------|    

-----------------------------|
-----------------------------|
-----------------------------|
-6^---------4^----------0^---|

Suggest correction
Give kudos to tab author, rate the tab!
1 2 3 4 5
comments
print report bad tab
guest
You may want to rate the tab now too:
select rating
Wanna post a correction for this tab? Suggest correction