Oops, an error
Loading. Please wait.

Waterfront Danceclub Tab

version 2
version 2

Whole song

Interactive

1,487 views 1 this week
no commentswrite comment
1 2 3 4 5
please rate
add to favorites
launch autoscroll
font size
0
reset
how to read this tab
guitar tuner
Tab Pro tools
  • play this tab
  • loop segment
  • change instrument
  • show fretboard
  • metronome
×
Best way to learn
"Waterfront Danceclub"
Autoscroll
slow
fast
+/-
esc
set tempo
stop
Contributor
Difficulty
Tuning
intermediate
C# G# C# F# A# D#
Funeral For A Friend
Waterfront Dance Club
Memory And Humanity (2008)
 
Email: Tomo_lewis@hotmail.com
This is my own work; i learnt this song by ear.

CHECK OUT MY BAND!! www.myspace.com/asdreamsfail

Guitar 1:Darran Smith (Rhythm Guitar)
Guitar 2:Kris Coombs-Roberts (Lead Guitar)


Tuning: C# (C#,G#,C#,F#,A#,D#)

INTRO (Both Guitars)

D#|---------------|
A#|-555-555-------|
F#|-444-444-------|   (X6)
C#|-222-000-------|
G#|-222-000-------| 
C#|-222-000-------|


FIRST VERSE (Both Guitars)

"Scarred...."

D#|-----------------|
A#|-----------------|
F#|-------7---------|
C#|-2-5-7-7-7-5-7-9-| (X4)
G#|-2-5-7-5-7-5-7-9-| 
C#|-2-5-7---7-5-7-9-|

"And It Glows"

D#|-----------------|
A#|-----------------|
F#|-------7---------|
C#|-5-5-7-7-7-5-7-9-| (X2)
G#|-5-5-7-5-7-5-7-9-| 
C#|-5-5-7---7-5-7-9-|

"Through The Skin"

D#|-----------------|
A#|-----------------|
F#|-------7---------|
C#|-2-5-7-7-7-5-7-9-| (X2)
G#|-2-5-7-5-7-5-7-9-| 
C#|-2-5-7---7-5-7-9-|

PRE-CHORUS

"Under Lights That Burn So Bright"

(Guitar 1)

D#|-----------------|
A#|-----------------|
F#|-5-------7-------|
C#|-5-(X24)-7-(X24)-| 
G#|-3-------5-------| 
C#|-----------------|

(Guitar 2)

D#|-----------------|
A#|-----------------|
F#|-9------11-------|
C#|-x-(X24)-x-(X24)-| 
G#|-7-------9-------| 
C#|-----------------|

CHORUS

(Guitar 1)

D#|---------------------------------------------------------------------|
A#|---------------------------------------------------------------------|
F#|-----777-----777---------7-------------------------------------------|
C#|-222-777-222-777---------7-(Listen For How Many Times, As It Changes-| 
G#|-222-555-222-555-222-555-5-------------------------------------------| 
C#|-222-----222-----222-555---------------------------------------------|

(Guitar 2)

D#|-------14-15-14----------14-15-14--------------------|
A#|----17----------17----17----------17-----------------|
F#|-16----------------16----------------16-14------14-16|
C#|-------------------------------------------17-16-----| 
G#|-----------------------------------------------------| 
C#|-----------------------------------------------------|

D#|-------14-15-14----------14-15-14--------------------|
A#|----17----------17----17----------17-----------------|
F#|-16----------------16----------------16-14-16--------|
C#|-----------------------------------------------------| 
G#|-----------------------------------------------------| 
C#|-----------------------------------------------------|

D#|-------14-15-14----------14-15-14--------------------|
A#|----17----------17----17----------17-----------------|
F#|-16----------------16----------------16-14------14-16|
C#|-------------------------------------------17-16-----| 
G#|-----------------------------------------------------| 
C#|-----------------------------------------------------|

D#|-------14-15-14----------14-15-14---------14-15-17-15-14---|
A#|----17----------17----17----------17----17---------------15|
F#|-16----------------16----------------16--------------------|
C#|-----------------------------------------------------------| 
G#|-----------------------------------------------------------| 
C#|-----------------------------------------------------------|


SECOND VERSE (Both Guitars)

Play Twice, Then Lyrics Come In
"Destroy To Destroy..."

D#|-----------------|
A#|-----------------|
F#|-------7---------|
C#|-2-5-7-7-7-5-7-9-| (X6)
G#|-2-5-7-5-7-5-7-9-| 
C#|-2-5-7---7-5-7-9-|

"You Know....."

D#|-----------------|
A#|-----------------|
F#|-------7---------|
C#|-5-5-7-7-7-5-7-9-| (X2)
G#|-5-5-7-5-7-5-7-9-| 
C#|-5-5-7---7-5-7-9-|

"You Don't...."

D#|-----------------|
A#|-----------------|
F#|-------7---------|
C#|-2-5-7-7-7-5-7-9-| (X2)
G#|-2-5-7-5-7-5-7-9-| 
C#|-2-5-7---7-5-7-9-|

PRE-CHORUS

"Wards Of Empty Patients...."

(Guitar 1)

D#|-----------------|
A#|-----------------|
F#|-5-------7-------|
C#|-5-(X24)-7-(X24)-| 
G#|-3-------5-------| 
C#|-----------------|

(Guitar 2)

D#|-----------------|
A#|-----------------|
F#|-9------11-------|
C#|-x-(X24)-x-(X24)-| 
G#|-7-------9-------| 
C#|-----------------|

CHORUS 2

(Guitar 1)

D#|---------------------------------------------------------------------|
A#|---------------------------------------------------------------------|
F#|-----777-----777---------7-------------------------------------------|
C#|-222-777-222-777---------7-(Listen For How Many Times, As It Changes-| 
G#|-222-555-222-555-222-555-5-------------------------------------------| 
C#|-222-----222-----222-555---------------------------------------------|

(Guitar 2)

D#|-------14-15-14----------14-15-14--------------------|
A#|----17----------17----17----------17-----------------|
F#|-16----------------16----------------16-14------14-16|
C#|-------------------------------------------17-16-----| 
G#|-----------------------------------------------------| 
C#|-----------------------------------------------------|

D#|-------14-15-14----------14-15-14--------------------|
A#|----17----------17----17----------17-----------------|
F#|-16----------------16----------------16-14-16--------|
C#|-----------------------------------------------------| 
G#|-----------------------------------------------------| 
C#|-----------------------------------------------------|

D#|-------14-15-14----------14-15-14--------------------|
A#|----17----------17----17----------17-----------------|
F#|-16----------------16----------------16-14------14-16|
C#|-------------------------------------------17-16-----| 
G#|-----------------------------------------------------| 
C#|-----------------------------------------------------|

D#|-------14-15-14----------14-15-14---------14-15-17-15-14------|
A#|----17----------17----17----------17----17---------------15---|
F#|-16----------------16----------------16---------------------14|
C#|--------------------------------------------------------------| 
G#|--------------------------------------------------------------| 
C#|--------------------------------------------------------------|


INTERLUDE

"Last Call On The Waterfront..."

(Guitar 1)

D#|-----------------------------|
A#|-----------------------------|
F#|-----------------------------|
C#|-5-------0-------10-------12-| (X2)
G#|-5-(X24)-0-(X24)-10-(X24)-12-| 
C#|-5-------0-------10-------12-|

(Guitar 2)

D#|----15-14----------------15-14----------------15-14------------------------|
A#|----------15-------------------15-------------------15---------------------|
F#|-12----------14-12-11-------------14-12-14-12----------14-12-11---11-12-14-|
C#|----------------------12----------------------------------------12---------| 
G#|---------------------------------------------------------------------------| 
C#|---------------------------------------------------------------------------|

D#|----15-14----------------15-14----------------15-14------------------------|
A#|----------15-------------------15-------------------15---------------------|
F#|-12----------14-12-11-------------14-12-14-12----------14-12-11---11-12-14-|
C#|----------------------12----------------------------------------12---------| 
G#|---------------------------------------------------------------------------| 
C#|---------------------------------------------------------------------------|


BASS BREAKDOWN

"Call....."

(Guitar 1)

D#|-----|
A#|-----|
F#|-----|
C#|-2-0-| (X2)
G#|-2-0-| 
C#|-2-0-|

(Guitar 2)

D#|-------------------------------------------------|
A#|-------15----------15----------15----------15----|
F#|----12----12----12----14----12----12----12----12-|
C#|-14----------14----------12----------12----------| 
G#|-------------------------------------------------| 
C#|-------------------------------------------------|

(Guitar 1)

D#|---------------------------------|
A#|---------------------------------|
F#|-5---------------5-------7-------|
C#|-5-(X12)-0-------5-(X12)-7-(X12)-| 
G#|-3-------0-(X12)-3-------5-------| 
C#|---------0-----------------------|

(Guitar 2)

D#|-------------------------------------------------|
A#|-------15----------15----------15----------15----|
F#|----12----12----12----14----12----12----12----12-|
C#|-14----------14----------12----------12----------| (X2)
G#|-------------------------------------------------| 
C#|-------------------------------------------------|

INTERLUDE AGAIN

"Last Call On The Waterfront..."

(Guitar 1)

D#|-----------------------------|
A#|-----------------------------|
F#|-----------------------------|
C#|-5-------0-------10-------12-| (X2)
G#|-5-(X24)-0-(X24)-10-(X24)-12-| 
C#|-5-------0-------10-------12-|

(Guitar 2)

D#|----15-14----------------15-14----------------15-14------------------------|
A#|----------15-------------------15-------------------15---------------------|
F#|-12----------14-12-11-------------14-12-14-12----------14-12-11---11-12-14-|
C#|----------------------12----------------------------------------12---------| 
G#|---------------------------------------------------------------------------| 
C#|---------------------------------------------------------------------------|

D#|----15-14----------------15-14----------------15-14------------------------|
A#|----------15-------------------15-------------------15---------------------|
F#|-12----------14-12-11-------------14-12-14-12----------14-12-11---11-12-14-|
C#|----------------------12----------------------------------------12---------| 
G#|---------------------------------------------------------------------------| 
C#|---------------------------------------------------------------------------|

END RIFF

(Both Guitars)

D#|----------|
A#|----------|
F#|--------7-|   (X9)
C#|-222222-7-|
G#|-222222-5-| 
C#|-222222---|

(Guitar 1)

D#|-------|
A#|-------|
F#|-7-5---|   
C#|-7-5-0-|
G#|-5-3-0-| 
C#|-----0-|

(Guitar 2)

D#|-15-14----|
A#|-------15-|
F#|----------|   
C#|----------|
G#|----------| 
C#|----------|

END!
Any Comments Much Appreciated!
comments
We did not receive enough feedback on this tab! Please rate:
print report bad tab
1 2 3 4 5
I want to post or [tab]
guest
You may want to rate the tab now too:
select rating
Please do not post tabs as comments. Select "correction" instead!