Oops, an error
Loading. Please wait.

Waterfront Danceclub Bass Tab

version 3
version 3

Whole song

Interactive

115 views 1 this week
no commentswrite comment
1 2 3 4 5
please rate
add to favorites
launch autoscroll
font size
0
reset
guitar tuner
Tab Pro tools
  • play this tab
  • loop segment
  • change instrument
  • show fretboard
  • metronome
×
Best way to learn
"Waterfront Danceclub"
Autoscroll
slow
fast
+/-
esc
set tempo
stop
Difficulty
Tuning
intermediate
C# G# C# F# A# D#
-------------------------------------------------------------------------------
			     Waterfront Danceclub - Funeral for a Friend
-------------------------------------------------------------------------------

Tabbed By : Chris Jacobs
e-mail: chrisjacobsmailbox@yahoo.co.uk

Tuning: Drop C#/Db

Corrected afew mistakes in my previous tab.
This 100% the correct tab of the song. Enjoy.


Intro
F#|--------------------------------|
C#|--------------------------------|   x4
G#|--------------------------------|
C#|2-2-2----------------2-2-2------|

F#|--------------------------|
C#|--------------------------| X3
G#|------------5--5----------|
C#|-2--2-2-5-7-----7-5-7-9---|

F#|--------------------------|
C#|--------------------------|
G#|------------5^------------|
C#|-2--2-2-5-7---------------|

Verse- Main Riff
F#|--------------------------|
C#|--------------------------| X8
G#|------------5--5----------|
C#|-2--2-2-5-7-----7-5-7-9---|

00:45- (Lights that burn so bright)
F#|----------------------------------|
C#|----------------------------------|
G#|-333333333333333-5555555555555555-|
C#|----------------------------------|

00:55- (The Light has faded)
F#|------------------------------|
C#|------------------------------|   X4
G#|----33--------33---------55555|
C#|22------22-------22222-55-----|



Verse part 2- 01:20(Destroy!)
F#|-----------------------------|
C#|-----------------------------|
G#|-----------------------------|
C#|-2-2222-2-2222-2-2222-2-2222-|

F#|------------------------------|
C#|------------------------------|
G#|------------------------------|
C#|-2-5555-5-5555-5/7-2222-2-2222|


01:38- (Wards of empty patients)
F#|-----------------------------------|
C#|-----------------------------------|
G#|-33333333(x4)-55555555(x4)-/7/12/2-|
C#|-----------------------------------|

01:47- (The Light has faded)
F#|------------------------------|
C#|------------------------------|   X4
G#|----33--------33---------55555|
C#|22------22-------22222-55-----|

F#|------------------------------------|
C#|------------------------------------|
G#|-------------5555555555555555-------|
C#|--3/55555555------------------------|


Chorus

F#|----------------------------------------------------------------------|
C#|----------------------------------------------------------------------|x2
G#|--------------------------------------33333-3-333333------------------|
C#|-55555-5-555555-5/7-00000-0-000000-5/7--------------5/7-00000-0-000000|    


Bridge- Just Bass

F#|-----------------------|
C#|-----------------------| X2
G#|-----------77----------|
C#|-22--2-5-7----7-5-7----|

F#|-----------------------|
C#|-----------------------| X2
G#|-----------55----------|
C#|-00--5-5-7----7-5-7----|

F#|-----------------------|
C#|-----------------------| X2
G#|-----------77----------|
C#|-22--2-5-7----7-5-7----|

F#|-----------------------|
C#|-----------------------| X2
G#|-----------55----------|
C#|-00--5-5-7----7-5-7----|


Breakdown 03:03- (The fantasy of reality)

F#|--------------------------------------------------|
C#|--------------------------------------------------| 
G#|333333333333333333333333-555555555555555555555555-|
C#|--------------------------------------------------|                               

F#|----------------------------------------------------------|
C#|101010101010101010101010(x2)-121212121212121212121212(x2)-| 
G#|----------------------------------------------------------|
C#|----------------------------------------------------------|                               
                                                                          
Chorus
F#|----------------------------------------------------------------------|
C#|----------------------------------------------------------------------|x2
G#|--------------------------------------33333-3-333333------------------|
C#|-55555-5-555555-5/7-00000-0-000000-5/7--------------5/7-00000-0-000000|    


OUTRO

F#|---------------------------|
C#|---------------------------| x3
G#|-----3----------3-----3----|
C#|2222-------2222----22------|    

F#|-----------------------------|
C#|-----------------------------|
G#|-----------------------------|
C#|-6r---------4r----------0r---|
comments
We did not receive enough feedback on this tab! Please rate:
print report bad tab
1 2 3 4 5
I want to post or [tab]
guest
You may want to rate the tab now too:
select rating
Please do not post tabs as comments. Select "correction" instead!