Oops, an error
Loading. Please wait.

You Cant See The Forest For The Wolves Bass Tab

version 1
version 1

Whole song

Interactive

383 views 3 this week
1 commentread comment
1 2 3 4 5
excellent!
x 3
add to favorites
launch autoscroll
font size
0
reset
guitar tuner
Tab Pro tools
  • play this tab
  • loop segment
  • change instrument
  • show fretboard
  • metronome
Autoscroll
slow
fast
+/-
esc
set tempo
stop
Contributor
You can't see the forest for the wolves
Funeral For A Friend

Drop C sharp (tune every string down half step, then D sharp (E string) down another whole step)
I think this sounds pretty perfect
Rate and comment any corrections please


Intro (just guitar)


Verse 0:26

F#|---------------------------------------------------------------------------|
C#|---------------------------------------------------------------------------|
G#|--8-5-------------7-4-----4-5-----8-5-------------7-4-----4-5--------------|
C#|------0-0-8-5-0-0-----0-0-----0-0-----0-0-8-5-0-0-----0-0-----0-0----------|   X2

F#|---------------------------------------------------------------------------|
C#|---------------------------------------------------------------------------|
G#|---------------------------------------------------------------------------|
C#|--8-8-8-8-8-8-8-8-8-8-8-8-8-8-8-8-7-7-7-7-7-7-7-7-7-7-7-7-7-7-7-7----------|

F#|---------------------------------------------------------------------------|
C#|---------------------------------------------------------------------------|
G#|--8-5-------------7-4-----4-5-----8-5-------------7-4-----4-5--------------|
C#|------0-0-8-5-0-0-----0-0-----0-0-----0-0-8-5-0-0-----0-0-----0-0----------|   X2

F#|---------------------------------------------------------------------------|
C#|---------------------------------------------------------------------------|
G#|---------------------------------------------------------------------------|
C#|--8-8-8-8-8-8-8-8-8-8-8-8-8-8-8-8-7-7-7-7-7-7-7-7-7-7-7-7-7-7-7-7----------|


Chorus 1:02

F#|---------------------------------------------------------------------------|
C#|---------------------------------------------------------------------------|
G#|---------------------------------------------------------------------------|
C#|-0-0-0-0-0-0-0-0-0-0-0-0-0-0-0-0-4-4-4-4-4-4-4-4-4-4-4-4-4-4-4-4-----------|  X3

F#|---------------------------------------------------------------------------|
C#|---------------------------------------------------------------------------|
G#|---------------------------------------------------------------------------|
C#|-5-5-5-5-5-5-5-5-5-5-5-5-5-5-5-5--8--8--8--8--8--8--8--8-------------------|


Verse 1:25

F#|---------------------------------------------------------------------------|
C#|---------------------------------------------------------------------------|
G#|--8-5-------------7-4-----4-5-----8-5-------------7-4-----4-5--------------|
C#|------0-0-8-5-0-0-----0-0-----0-0-----0-0-8-5-0-0-----0-0-----0-0----------|   X2

F#|---------------------------------------------------------------------------|
C#|---------------------------------------------------------------------------|
G#|---------------------------------------------------------------------------|
C#|--8-8-8-8-8-8-8-8-8-8-8-8-8-8-8-8-7-7-7-7-7-7-7-7-7-7-7-7-7-7-7-7----------|

F#|---------------------------------------------------------------------------|
C#|---------------------------------------------------------------------------|
G#|--8-5-------------7-4-----4-5-----8-5-------------7-4-----4-5--------------|
C#|------0-0-8-5-0-0-----0-0-----0-0-----0-0-8-5-0-0-----0-0-----0-0----------|   X2

F#|---------------------------------------------------------------------------|
C#|---------------------------------------------------------------------------|
G#|---------------------------------------------------------------------------|
C#|--8-8-8-8-8-8-8-8-8-8-8-8-8-8-8-8-7-7-7-7-7-7-7-7-7-7-7-7-7-7-7-7----------|


Chorus 1:02

F#|---------------------------------------------------------------------------|
C#|---------------------------------------------------------------------------|
G#|---------------------------------------------------------------------------|
C#|-0-0-0-0-0-0-0-0-0-0-0-0-0-0-0-0-4-4-4-4-4-4-4-4-4-4-4-4-4-4-4-4-----------|  X3

F#|---------------------------------------------------------------------------|
C#|---------------------------------------------------------------------------|
G#|---------------------------------------------------------------------------|
C#|-5-5-5-5-5-5-5-5-5-5-5-5-5-5-5-5--8--8--8--8--8--8--8--8-------------------|


Bridge/Breakdown 2:24

F#|----------------------|
C#|----------------------| Let ring
G#|----------------------|
C#|-0--------------------|  X2

F#|---------------------------------------------------------------------------|
C#|---------------------------------------------------------------------------|
G#|---------------------------------------------------------------------------| X4
C#|-0--0--0-0--0--0--0-0--0--0--0-0-------\8--8-8-7/--------------------------|

Outro

F#|---------------------------------------------------------------------------|
C#|---------------------------------------------------------------------------|
G#|--8-5-------------7-4-----4-5-----8-5-------------7-4-----4-5--------------|
C#|------0-0-8-5-0-0-----0-0-----0-0-----0-0-8-5-0-0-----0-0-----0-0----------|   X2


F#|------------------------------------------------------------------------E--|
C#|------------------------------------------------------------------------N--|
G#|--8-5-------------7-4-----4-5-----8-5-------------7-4-----4-5-----8-5---D--|
C#|------0-0-8-5-0-0-----0-0-----0-0-----0-0-8-5-0-0-----0-0-----0-0----------|



comments
We did not receive enough feedback on this tab! Please rate:
print report bad tab
1 2 3 4 5
1 comment total.
0 reply
The4given1 wrote on January 15 2009, 07:01 pm

awesome

5 stars

thankyou

ive wanted this for ages

constant illumintaions?>?

I want to post or [tab]
guest
You may want to rate the tab now too:
select rating
Please do not post tabs as comments. Select "correction" instead!