Oops, an error
Loading. Please wait.

You Want Romance Bass Tab

version 1
version 1

Whole song

Interactive

253 views 1 this week
no commentswrite comment
1 2 3 4 5
please rate
add to favorites
launch autoscroll
font size
0
reset
guitar tuner
Tab Pro tools
  • play this tab
  • loop segment
  • change instrument
  • show fretboard
  • metronome
×
Best way to learn
"You Want Romance"
Autoscroll
slow
fast
+/-
esc
set tempo
stop
Contributor
Intro/Verse		 
G|-----------------------|
D|-----------------------|
A|-----------------------|
E|-11--------44-66-------|
B|----222222-------44444-|


Pre-Chorus/Pre-Verse:
G|------------------------------------|
D|------------------------------------|
A|------------------------------------|
E|----------(1)----------(1)----------| <- I added this F because it sounds nice
B|-22222222-----44444444-----22222222-|


Chorus:
G|-----------------------------|
D|-----------------------------|
A|-----------------------------|
E|-11-3-4-3-1-3-4----3-4---3-4-| <- one one, not eleven!
B|----------------22-----4-----|


Interlude:
G|---|
D|---|
A|---|
E|---|
B|-2-| <- just strum as often as needed


Ending:
G|-----------------------|
D|-----------------------|
A|-11----------1-3-1---1-| <-|- again, one one, not eleven!
E|----1-1111-4-------4---| <-/ 
B|-----------------------|


When the song ends, either repeat this part:

G|-------------|
D|-------------|
A|---1-3-1---1-| 
E|-4-------4---| 
B|-------------|

or play the Interlude part.


That should be about it.

Have fun playing, and please rate! =)
comments
We did not receive enough feedback on this tab! Please rate:
print report bad tab
1 2 3 4 5
I want to post or [tab]
guest
You may want to rate the tab now too:
select rating
Please do not post tabs as comments. Select "correction" instead!