Oops, an error
Loading. Please wait.

You Want Romance Tab

version 1
version 1

Whole song

Interactive

2,065 views 1 this week
no commentswrite comment
1 2 3 4 5
accurate
x 3
add to favorites
launch autoscroll
font size
0
reset
how to read this tab
guitar tuner
Autoscroll
slow
fast
+/-
esc
set tempo
stop
Help us to improve Ultimate-Guitar.com Take our survey!
×
Author
ARTIST: Funeral For A Friend
TITLE:  You Want Romance?
TABBER: Luke Charman (emoluke {AT} gmail.com)
ALBUM:  Escape Artists Never Die (CD Single)
GENRE:  Emocore
YEAR:   2004

Well.. it's been a good six/seven months now since You Want Romance? was first heard on
the EAND CD Single.. and nobody yet has had a go at tabbing the thing. It's an incredibly
hard song to tab in my opinion, the layering of guitars is done in such a way to make it
almost impossible to tell who's playing what. Anyway, I've done my best.. I'm very proud,
I've not been playing guitar all that long (about eighteen months), and I've had no
lessons, and this is what I've figured out. Most of it sounds 90% right to me, there are
errors, if anyone wants to correct them go ahead, just please say you got your source
from me :)

Enjoy!

----------------------------------------------------------------------------
Lead Guitar - Kris Roberts:
----------------------------------------------------------------------------

Intro:
  
eb|--5-4---4-5-------5-4---4-5-------5-5-5-7-7-7-5-5-5-4-4-4-4-4-4-4--|
Bb|------5-----5-5-5-----5-----5-5-5----------------------------------|
Gb|-------------------------------------------------------------------|
Db|-------------------------------------------------------------------|
Ab|-------------------------------------------------------------------|
Db|-------------------------------------------------------------------|

eb|--5-4---4-5-------5-4---4-5---------4-x-x-4-5-x-x-5-7-x-x-4-5----|
Bb|------5-----5-5-5-----5-----5-5-5-5---------------------------5--|
Gb|-----------------------------------------------------------------|
Db|-----------------------------------------------------------------|
Ab|-----------------------------------------------------------------|
Db|-----------------------------------------------------------------|

Bridge (Elevens, not ones):

eb|--------------------------------------------------------------------|
Bb|--------------------------------------------------------------------|
Gb|--7-----7-----6-----6-----6-6-6-6-9-----9----11----11-----11--11----|
Db|--7-0-0-7-0-0-7-0-0-7-0-0-7-7-7-7-9-0-0-9-0-0-9-0-0-9-0-0-11--11----|
Ab|--5-0-0-5-0-0-4-0-0-4-0-0-4-4-4-4-7-0-0-7-0-0-7-0-0-7-0-0--9-9-9-9--|
Db|--------------------------------------------------------------------|
  |    . .   . .   . .   . .           . .   . .   . .   . .    .   .

Chorus (It's more complicated than this but I can't figure it out):

eb|------5---7-5---5--|
Bb|--5-5---5-----5----|
Gb|-------------------|
Db|-------------------|
Ab|-------------------|
Db|-------------------|

Chorus To Verse Fill (After 2nd chorus, add the 2's in brackets):

eb|-------------------------------------|
Bb|-------------------------------------|
Gb|-------------------------------------|
Db|--0-0-0-0-0-0-0-0-2-2-2-2-(2-2-2-2)--|
Ab|--0-0-0-0-0-0-0-0-2-2-2-2-(2-2-2-2)--|
Db|--0-0-0-0-0-0-0-0-2-2-2-2-(2-2-2-2)--|

Breakdown:

eb|------------------|
Bb|------------------|
Gb|------------------|
Db|--6----7----9-11--|
Ab|----7----9--------|
Db|------------------|

Outro:

eb|--5-5-5-5-5-5-7-7-7-5-5-5-5-5-5-5------------------------|
Bb|---------------------------------------------------------|
Gb|----------------------------------12--14--16--14--12-14--|
Db|-----------------------------------x---x---x---x---x--x--|
Ab|----------------------------------10--12--14--12--10-12--|
Db|---------------------------------------------------------|

----------------------------------------------------------------------------
Rhythm Guitar - Darran Smith:
----------------------------------------------------------------------------

Intro:

eb|--These are the chords, I think, probably more--|
Bb|----complicated than this.. figure it out!------|
Gb|------------------------------------------------|
Db|--7--2--8-7-2-----------------------------------|
Ab|--7--2--8-7-2-----------------------------------|
Db|--7--2--8-7-2-----------------------------------|

Bridge (Elevens, not ones):

eb|--------------------------------------------------------------------|
Bb|--------------------------------------------------------------------|
Gb|--7-----7-----6-----6-----6-6-6-6-9-----9----11----11-----11--11----|
Db|--7-0-0-7-0-0-7-0-0-7-0-0-7-7-7-7-9-0-0-9-0-0-9-0-0-9-0-0-11--11----|
Ab|--5-0-0-5-0-0-4-0-0-4-0-0-4-4-4-4-7-0-0-7-0-0-7-0-0-7-0-0--9-9-9-9--|
Db|--------------------------------------------------------------------|
  |    . .   . .   . .   . .           . .   . .   . .   . .    .   .

Chorus:

eb|-----------------------------------|
Bb|---------------------4h5p4p2p0-----|
Gb|-----------------------------------|
Db|--4--6-7-6-4-6h7-0~------------2~--|
Ab|--4--6-7-6-4-6h7-0~------------2~--|
Db|--4--6-7-6-4-6h7-0~------------2~--|

Chorus To Verse Fill (After 2nd chorus, add the 2's in brackets):

eb|-------------------------------------|
Bb|-------------------------------------|
Gb|-------------------------------------|
Db|--0-0-0-0-0-0-0-0-2-2-2-2-(2-2-2-2)--|
Ab|--0-0-0-0-0-0-0-0-2-2-2-2-(2-2-2-2)--|
Db|--0-0-0-0-0-0-0-0-2-2-2-2-(2-2-2-2)--|

Breakdown:

eb|---------------------------|
Bb|---------------------------|
Gb|---------------------------|
Db|--000-000---000-000---000--|
Ab|--000-000---000-000---000--|
Db|--000-000---000-000---000--|
     ... ...   ... ...   ...

Outro:

eb|--5-5-5-5-5-5-7-7-7-5-5-5-5-5-5-5------------------------|
Bb|---------------------------------------------------------|
Gb|----------------------------------12--14--16--14--12-14--|
Db|-----------------------------------x---x---x---x---x--x--|
Ab|----------------------------------10--12--14--12--10-12--|
Db|---------------------------------------------------------|

----------------------------------------------------------------------------
Lyrics:
----------------------------------------------------------------------------

The water's colder at the edge,
And they dived for hours.
Past sundown,
Until the body was wasted.

Did they conspire to this?
Did they conspire to..?

Thirty three and a half
Until the end.
As we sway from ear to ear.
And your heels look so beautiful
Against the carpet, against the carpet.
So graceful, yet so insecure.

This ghost will haunt you,
And I will judge you fair.

----------------------------------------------------------------------------
Comments? Questions? Corrections? emoluke {AT} gmail.com
----------------------------------------------------------------------------
Suggest correction
What's this?
You can suggest a correction to this tab. Community and Mods will review your correction and vote to approve or reject it.
comments
We did not receive enough feedback on this tab! Please rate:
print report bad tab
1 2 3 4 5
guest
You may want to rate the tab now too:
select rating
Please do not post tabs as comments. Select "correction" instead!