Oops, an error
Loading. Please wait.

You Want Romance Bass

version 2
version 2

Whole song

Interactive

66 views 1 this week
no commentswrite comment
1 2 3 4 5
3 more votes to show rating
add to favorites
launch autoscroll
font size
0
reset
guitar tuner
×
Best way to learn
"You Want Romance"
Autoscroll
slow
fast
+/-
esc
set tempo
stop
Author
Difficulty
Tuning
  follow
intermediate
C# G# C# F#
Funeral For a Friend
You Want Romance?
Db tuning

If theres any corrections please comment

Intro/Verse		 
Gb|-----------------------|
Db|-----------------------|
Ab|-----------------------|
Db|-44-000000-77-99-22222-|


Pre-Chorus/Pre-Verse:
Gb|------------------------------|
Db|------------------------------|
Ab|------------------------------|
Db|-00000000--22222222--00000000-|


Chorus:
Gb|-----------------------------|
Db|-----------------------------|
Ab|-----------------------------|
Db|-44-6-7-6-4-6-7-00-6-7-2-6-7-|

(or alternatively just play the root notes (F and C sharp)


Interlude:
Gb|----------|
Db|----------|
Ab|----------|
Db|-00000000-|

Verse		 
Gb|-----------------------|
Db|-----------------------|
Ab|-----------------------|
Db|-44-000000-77-99-22222-|


Pre-Chorus/Pre-Verse:
Gb|------------------------------|
Db|------------------------------|
Ab|------------------------------|
Db|-00000000--22222222--00000000-|

Chorus:
Gb|-----------------------------|
Db|-----------------------------|
Ab|-----------------------------|
Db|-44-6-7-6-4-6-7-00-6-7-2-6-7-|

(or alternatively just play the root notes (F and C sharp)

(not too sure about the ending)
Ending:
Gb|-----------------------|
Db|-----------------------|
Ab|-22--------0-2-4-2-0-2-| x2
Db|----4-4444-------------|

Gb|----------|
Db|----------|
Ab|----------|
Db|-00000000-|
Suggest correction
Give kudos to tab author, rate the tab!
1 2 3 4 5
comments
print report bad tab
guest
You may want to rate the tab now too:
select rating
Wanna post a correction for this tab? Suggest correction