Oops, an error
Loading. Please wait.

You Want Romance Tab

version 3
version 3

Whole song

Interactive

641 views 1 this week
no commentswrite comment
1 2 3 4 5
3 more votes to show rating
add to favorites
launch autoscroll
font size
0
reset
how to read this tab
guitar tuner
Autoscroll
slow
fast
+/-
esc
set tempo
stop
Help us to improve Ultimate-Guitar.com Take our survey!
×
Author
You Want Romance?
Memory And Humanity EP
Funeral for a Friend

This is the tab for the guitar that is being played
under a thick layer of fog and a few blankets.
The other tabs for the lead guitar on UG are correct.

Tuning: Drop Db (Like the rest of their songs)

Legend:
()   Ghost/Optional note
/    Slide
x    Muted note
h    Hammer-on
p    Pull-off

Intro/Verse:
db------------------------------------------------|
Bb------------------------------------------------|
Gb-----------------6-4-9/11-----------------6-h7--|
DB-4-4-4-4-4-------7-6-x----7--7-9--9-6--6--7-----|
Ab-4-4-4-4-4-----------7/9--7--7-11-117--7--------|
Db-4-4-4-4-4-0-000----------7--7-9--9-6--6--------|
pm           . ...

db----------------------------------------------------|
Bb----------------------------------------------------|
Gb------------------6-4-9/11-14-1416-1613-13-14p13----|
DB-4-4-4-4-4--------7-6-x----x--x-x--x-x--x-------14--|x4
Ab-4-4-4-4-4------------7/9--12-1214-1411-11----------|
Db-4-4-4-4-4-0-000------------------------------------|
pm           . ...

Prechorus:
db----------------------------------------------------------|
Bb----------------------------------------------------------|
Gb-----------6----6----6-6-6-6---------------------6---6----|
DB-7----7----7----7----7-7-7-7-6----6----7----7----9---9----|x2
Ab-5-55-5-55-5-55-5-55-5-5-5-5-7-77-7-77-7-77-7-77-7-7-7-7--|
Db----------------------------------------------------------|
pm   ..   ..   ..   ..   .   .   ..   ..   ..   ..   .   .

Chorus:
db-----------------------------------------------------|
Bb-----------------------------------------------------|
Gb-------------6-4-2-4/6---------1h4p1-----------7p6---|
Db--4-------4--7-6-4-6/7-0------------2-2-----------7--|x4
Ab--4-------4------------0--------------2--------------|
Db--4-4-4-4-4------------0-0-0-0--------2--2-2-2-------|
pm    . . .                . . .           . . .

Postchorus (play w/ first ending this time)
                     ending  1      2
db-------------------------|---|----------|
Bb-------------------------|---|----------|
Gb-------------------------|---|----------|
DB-------------------------|-2-|----------|
Ab-------------------------|-2-|----------|
Db-000-000-000-000-222-222-|-2-|-222-222--|
pm ... ... ... ... ... ...       ... ...

Verse
Prechorus
Chorus
Postchorus (play w/ second ending this time)

All right, time for the breakdown :D

db---------------------------------------|
Bb---------------------------------------|
Gb---------------------------------------|
DB---------6-----------7-----------9h11--|x8
Ab-----------7-----------9---------------|
Db-000-000-----000-000-----000-000-------|
pm ... ...     ... ...     ... ...

Outro:
db---------------------|------------------------------|
Bb---------x-x---------|------------------------------|
Gb---------x-x---------|------------------------------|
DB-7-7-7-7-x-x-4---4-4-|-7-----7-----7-----6-----6----|
Ab-9-9-9-9-x-x-4---4-4-|---------------------------7--|
Db-7-7-7-7-x-x-4---4-4-|---0-0---0-0---0-0---0-0------|
Play the whole thing x4, then wait for the lead guitar
to play those 4 octave chords solo, then play only the
second half of the outro x4

end on
db----|
Bb----|
Gb----|
DB-4--|
Ab-4--|
Db-4--|

Corrections are very welcome.
Suggest correction
Give kudos to tab author, rate the tab!
1 2 3 4 5
comments
print report bad tab
guest
You may want to rate the tab now too:
select rating
Wanna post a correction for this tab? Suggest correction