Oops, an error
Loading. Please wait.

You Want Romance Tab

version 4
version 4

Whole song

Interactive

563 views 1 this week
no commentswrite comment
1 2 3 4 5
please rate
add to favorites
launch autoscroll
font size
0
reset
how to read this tab
guitar tuner
Autoscroll
slow
fast
+/-
esc
set tempo
stop
Help us to improve Ultimate-Guitar.com Take our survey!
×
Author
Difficulty
Tuning
intermediate
D# G# C# F# A# D#
FUNERAL FOR A FRIEND - YOU WANT ROMANCE?

Tabbed by: Jay
Email: broken_wings_will_fly_again@msn.com

Tuning: HALF-STEP DOWN

This is a mixture between guitar one and guitar two, 
as I couldn't be bothered to tab the lead in the 
chorus and the rhythm in the rest of the song. 

VERSE x2
|-------------------------------------------------------------|
|-10---------10--------10---------10--------10-12-10----------|
|----13-9-13----9-9-9-----13-9-13----9-9-9----9--9--9-9/13/14-|
|-------------------------------------------------------------|
|-------------------------------------------------------------|
|-------------------------------------------------------------|
PT.2
|---------------------------------------------------------------|
|-10-------10-----10-------10---------------9h10---10h12---10p9-|
|---13-9-13--9-9-9--13-9-13--9-9-9-10h13-9-9----9-9-----9-9-----|
|---------------------------------------------------------------|
|---------------------------------------------------------------|
|---------------------------------------------------------------|

PRE-CHORUS x2
|-------------------------------------------|
|-------------------------------------------|
|-7---7---7---7---6-4--9---9---9---9---9-11-|
|-7-0-7-0-7-0-7-0-7-7--9-0-9-0-9-0-9-0-7-11-|
|-5-0-5-0-5-0-5-0-4-4--7-0-7-0-7-0-7-0-7-9--|
|-------------------------------------------|
    .   .   .   .        .   .   .   .

CHORUS x4
|-------------------------------------|
|------------------------------2h3p2--|
|-----------------------------------2-|
|-4----7-7-7-9-9h11-0-2h4p2p0-2-------|
|-4----5-4-5-7------0---------2-------|
|-4-4-4-------------0---------2-------|
    . .
FOURTH TIME ONLY END CHORUS ON
|-------|
|-10-12-|
|--9--9-|
|--0--0-|
|--0--0-|
|-------|

VERSE x2

PRE-CHORUS x2

CHORUS x4

BRIDGE x4 [Only the first pattern is correct, sounds best with #2 too]
|-------------------------------------|
|-------------------------------------|
|-------------------------------------|
|-----6p0---6---7-9----6p0---6/7--9\7-|
|------------7------------------------|
|-0000---000--00----000---000---00----|
  ....   ...  ..    ...   ...   ..

OUTRO
|-------------------------|
|-10-12-------------------|
|--9--9-14-16-18-16-14-16-|
|--0--0--x--x--x--x--x--x-|
|--0--0-12-14-16-14-12-14-|
|-------------------------|
PT.2
|-------------------|
|-------------------|
|-14-16-18-16-14-16-|
|--x--x--x--x--x--x-|
|-12-14-16-14-12-14-|
|-------------------|

END ON
|----|
|----|
|-14-|
|--x-|
|-12-|
|----|
Suggest correction new What's this?
You can suggest a correction to this tab. Community and Mods will review your correction and vote to approve or reject it.
comments
We did not receive enough feedback on this tab! Please rate:
print report bad tab
1 2 3 4 5
guest
You may want to rate the tab now too:
select rating
Please do not post tabs as comments. Select "correction" instead!