Oops, an error
Loading. Please wait.

Your Revolution Is A Joke Bass Tab

version 1
version 1

Whole song

697 views 1 this week
no commentswrite comment
1 2 3 4 5
2 more votes to show rating
add to favorites
launch autoscroll
font size
0
reset
guitar tuner
Autoscroll
slow
fast
+/-
esc
set tempo
stop
Help us to improve Ultimate-Guitar.com Take our survey!
×
Author
Difficulty
novice
Intro :X2

G|--------------------------------------------------|
D|--------------------------------------------------|
A|----9----9----9----9-8----------------------------|
E|-----------------------9----7----7----7----7-6----|


Verse 1 :X4

G|--------------------------------------------------|
D|--------------------------------------------------|
A|----9----9----9----9-8----------------------------|
E|-----------------------9----7----7----7----7-6----|


Chorus :X2

G|-------------------------------------------------------------------------------------|
D|-------------------------------------------------------------------------------------|
A|-------------------------------------------------------------------------------------|
E|----7----7----7----7--6--9----9----9----9--6--7----7----7----7--6--9----9----9----9--|


Verse 2 :X4

G|--------------------------------------------------|
D|--------------------------------------------------|
A|----9----9----9----9-8----------------------------|
E|-----------------------9----7----7----7----7-6----|


Chorus :X4

G|-------------------------------------------------------------------------------------|
D|-------------------------------------------------------------------------------------|
A|-------------------------------------------------------------------------------------|
E|----7----7----7----7--6--9----9----9----9--6--7----7----7----7--6--9----9----9----9--|


Outro :X4

G|--------------------------------------------------------------------------------------------|
D|--------------------------------------------------------------------------------------------|
A|----9----9----9----9--8--6----6----6----6----6--7-------------------------------------------|
E|---------------------------------------------------7----7----7----7----7----7----7----7--9--|

End On :

G|--------|
D|--------|
A|----9~--|
E|--------|


Any Comments Much Appreciated As This Is My First Tab.

Thanks

The4given1
Suggest correction
Give kudos to tab author, rate the tab!
1 2 3 4 5
comments
print report bad tab
guest
You may want to rate the tab now too:
select rating
Wanna post a correction for this tab? Suggest correction