Oops, an error
Loading. Please wait.

All Those Friendly People tab

571 views 27 this week
no commentswrite comment
1 2 3 4 5
x 4
add to favorites
×
Save as Personal and add changes to this tab that will be seen only by you. Learn more ›
×
You can save this tab as Personal to edit and correct it or add notes. All changes will be seen only by you. Learn more »
launch autoscroll
font size
0
reset
how to read this tab
guitar tuner
edit
Autoscroll
slow
fast
+/-
esc
set tempo
stop
Author
Difficulty
About this tab version
It has the lead guitar part. Was this info helpful? Yes No
[Intro]
     A
e|---------------------------------------------------|
B|------7p5-----7p5--------------7p5-----7p5---------|
G|---6------7p6-----6h7p6------------7p6-----6h7p6---|
D|----7--------------------7(n)----------------------|
A|---------------------------------------------------|
E|---------------------------------------------------|

     D
e|---------------5--------------5-----|
B|----------5--------------5----------|
G|-------6----6----6-----6---6--------|
D|-----7---7---7-------7------7-------|
A|---5---------------5----------------|
E|------------------------------------|

     F#m
e|---------------------------------------------------|
B|------7p5-----7p5--------------7p5-----7p5---------|
G|---6------7p6-----6h7p6------------7p6-----6h7p6---|
D|----7--------------------7(n)----------------------|
A|---------------------------------------------------|
E|---------------------------------------------------|

     D
e|---------------5--------------5-----|
B|----------5--------------5----------|
G|-------6----6----6-----6---6--------|
D|-----7---7---7-------7------7-------|
A|---5---------------5----------------|
E|------------------------------------|

[Verse]
  A
Count back anecitize
Colours burnt into my eyes
  D
Life for you is shades of grey
Help me, help me find my way
  F#m
Lost, lost, never found
Hide your secrets, settle down
  D
I am young and I am naïve
Tell me something I will believe

  A
Take me, take me far away...
e|---------------------------------------------------|
B|------7p5-----7p5--------------7p5-----7p5---------|
G|---6------7p6-----6h7p6------------7p6-----6h7p6---|
D|----7--------------------7(n)----------------------|
A|---------------------------------------------------|
E|---------------------------------------------------|

  D
Hid away 'til I was eighteen...
e|---------------5--------------5-----|
B|----------5--------------5----------|
G|-------6----6----6-----6---6--------|
D|-----7---7---7-------7------7-------|
A|---5---------------5----------------|
E|------------------------------------|

  F#m
Skinny jeans and sunglasses...
e|---------------------------------------------------|
B|------7p5-----7p5--------------7p5-----7p5---------|
G|---6------7p6-----6h7p6------------7p6-----6h7p6---|
D|----7--------------------7(n)----------------------|
A|---------------------------------------------------|
E|---------------------------------------------------|

  D
What you're doing makes me sick...
e|---------------5--------------5-----|
B|----------5--------------5----------|
G|-------6----6----6-----6---6--------|
D|-----7---7---7-------7------7-------|
A|---5---------------5----------------|
E|------------------------------------|

  A
Shine, shine, like the sun...
e|---------------------------------------------------|
B|------7p5-----7p5--------------7p5-----7p5---------|
G|---6------7p6-----6h7p6------------7p6-----6h7p6---|
D|----7--------------------7(n)----------------------|
A|---------------------------------------------------|
E|---------------------------------------------------|

  D
I asked you why people die...
e|---------------5--------------5-----|
B|----------5--------------5----------|
G|-------6----6----6-----6---6--------|
D|-----7---7---7-------7------7-------|
A|---5---------------5----------------|
E|------------------------------------|

  F#m
Slide into the sea...
e|---------------------------------------------------|
B|------7p5-----7p5--------------7p5-----7p5---------|
G|---6------7p6-----6h7p6------------7p6-----6h7p6---|
D|----7--------------------7(n)----------------------|
A|---------------------------------------------------|
E|---------------------------------------------------|

  D
I said I was into you...
e|---------------5--------------5-----|
B|----------5--------------5----------|
G|-------6----6----6-----6---6--------|
D|-----7---7---7-------7------7-------|
A|---5---------------5----------------|
E|------------------------------------|

e|---------------------------------------------------------------------------|
B|---------------------------------------------------------------------------|
G|---------------------------------------------------------------------------|
D|---------------------------------------------------------------------------|
A|---------------------------------------------------------------------------|
E|---------------------------------------------------------------------------|

[Chorus]
(A, D, F#m, D, Bm, D, F#m, D)
You never answer on the phone...
e|-------------------5/4--|
B|---5/7------5/7---------|
G|-------6~-------6~------|  (x3)
D|------------------------|
A|------------------------|
E|------------------------|

e|---------5/4------------|
B|---5/7--------5/7-------|
G|-------6~---------6~----|  
D|------------------------|
A|------------------------|
E|------------------------|

[Bridge]
(A, D, F#m, D)
e|--9b10b9-----------9b10b9------------------|
B|----------10-9-7~-----------10-9-7~-7b10---|
G|-------------------------------------------|
D|-------------------------------------------|
A|-------------------------------------------|
E|-------------------------------------------|

[Verse 2]
  A
Burn, burn, like a star...
e|---------------------------------------------------|
B|------7p5-----7p5--------------7p5-----7p5---------|
G|---6------7p6-----6h7p6------------7p6-----6h7p6---|
D|----7--------------------7(n)----------------------|
A|---------------------------------------------------|
E|---------------------------------------------------|

  D
Strung out on a trail of blood...
e|---------------5--------------5-----|
B|----------5--------------5----------|
G|-------6----6----6-----6---6--------|
D|-----7---7---7-------7------7-------|
A|---5---------------5----------------|
E|------------------------------------|

  F#m
Smile, smile, if you can...
e|---------------------------------------------------|
B|------7p5-----7p5--------------7p5-----7p5---------|
G|---6------7p6-----6h7p6------------7p6-----6h7p6---|
D|----7--------------------7(n)----------------------|
A|---------------------------------------------------|
E|---------------------------------------------------|

  D
See these stiches in my eyes...
e|---------------5--------------5-----|
B|----------5--------------5----------|
G|-------6----6----6-----6---6--------|
D|-----7---7---7-------7------7-------|
A|---5---------------5----------------|
E|------------------------------------|

  A
Purge the past and waste my mind...
e|---------------------------------------------------|
B|------7p5-----7p5--------------7p5-----7p5---------|
G|---6------7p6-----6h7p6------------7p6-----6h7p6---|
D|----7--------------------7(n)----------------------|
A|---------------------------------------------------|
E|---------------------------------------------------|

  D
One day when you bury me...
e|---------------5--------------5-----|
B|----------5--------------5----------|
G|-------6----6----6-----6---6--------|
D|-----7---7---7-------7------7-------|
A|---5---------------5----------------|
E|------------------------------------|

  F#m
Down, down, underground...
e|---------------------------------------------------|
B|------7p5-----7p5--------------7p5-----7p5---------|
G|---6------7p6-----6h7p6------------7p6-----6h7p6---|
D|----7--------------------7(n)----------------------|
A|---------------------------------------------------|
E|---------------------------------------------------|

  D
What is on the radio...
e|---------------5--------------5-----|
B|----------5--------------5----------|
G|-------6----6----6-----6---6--------|
D|-----7---7---7-------7------7-------|
A|---5---------------5----------------|
E|------------------------------------|

  A
Crawl, crawl, through the dirt...
e|---------------------------------------------------|
B|------7p5-----7p5--------------7p5-----7p5---------|
G|---6------7p6-----6h7p6------------7p6-----6h7p6---|
D|----7--------------------7(n)----------------------|
A|---------------------------------------------------|
E|---------------------------------------------------|

  D
Can't you just send us a sign...
e|---------------5--------------5-----|
B|----------5--------------5----------|
G|-------6----6----6-----6---6--------|
D|-----7---7---7-------7------7-------|
A|---5---------------5----------------|
E|------------------------------------|

  F#m
Nights for sitting in the dark...
e|---------------------------------------------------|
B|------7p5-----7p5--------------7p5-----7p5---------|
G|---6------7p6-----6h7p6------------7p6-----6h7p6---|
D|----7--------------------7(n)----------------------|
A|---------------------------------------------------|
E|---------------------------------------------------|

  D
Wake me up from my sick dream...
e|---------------5--------------5-----|
B|----------5--------------5----------|
G|-------6----6----6-----6---6--------|
D|-----7---7---7-------7------7-------|
A|---5---------------5----------------|
E|------------------------------------|

[Chorus]
(A, D, F#m, D, Bm, D, F#m, D)
You never answer on the phone...
e|-------------------5/4--|
B|---5/7------5/7---------|
G|-------6~-------6~------|  (x3)
D|------------------------|
A|------------------------|
E|------------------------|

e|---------5/4------------|
B|---5/7--------5/7-------|
G|-------6~---------6~----|  
D|------------------------|
A|------------------------|
E|------------------------|

[Bridge]
(A, D, F#m, D) 
e|--9b10b9----------|
B|----------10-9----|
G|------------------|
D|------------------|
A|------------------|
E|------------------|

[Outro]
  A
Count back anecitize...
e|---------------------------------------------------|
B|------7p5-----7p5--------------7p5-----7p5---------|
G|---6------7p6-----6h7p6------------7p6-----6h7p6---|
D|----7--------------------7(n)----------------------|
A|---------------------------------------------------|
E|---------------------------------------------------|

  D
Life for you is shades of grey...
e|---------------5--------------5-----|
B|----------5--------------5----------|
G|-------6----6----6-----6---6--------|
D|-----7---7---7-------7------7-------|
A|---5---------------5----------------|
E|------------------------------------|

  F#m
Mother can't you help me now...
e|---------------------------------------------------|
B|------7p5-----7p5--------------7p5-----7p5---------|
G|---6------7p6-----6h7p6------------7p6-----6h7p6---|
D|----7--------------------7(n)----------------------|
A|---------------------------------------------------|
E|---------------------------------------------------|

  D
Lying on the motorway...
e|---------------5--------------5-----|
B|----------5--------------5----------|
G|-------6----6----6-----6---6--------|
D|-----7---7---7-------7------7-------|
A|---5---------------5----------------|
E|------------------------------------|

e|---5~---|
B|---5~---|
G|---6~---|
D|---7~---|
A|--------|
E|--------|


************************************

| p  Pull-off
| h  Hammer-on
| /  Slide up
| ~  Vibrato
| b  Bend
 

************************************
Suggest correction
Creating personal tab
Creating personal tab
You can edit any tab online and save it as your Personal.

You can edit, replace or remove any tab part or add personal notes – all changes will be seen only by you.

Personal tabs can be accessed anytime from any device, even offline.
Learn more »
comments
print report bad tab
guest
You may want to rate the tab now too:
select rating
Wanna post a correction for this tab? Suggest correction