Oops, an error
Loading. Please wait.

Can You Get To That Tab

38,059 views 54 this week
5 commentsread comments
1 2 3 4 5
accurate
x 18
add to favorites
launch autoscroll
font size
0
reset
how to read this tab
guitar tuner
Tab Pro tools
  • play this tab
  • loop segment
  • change instrument
  • show fretboard
  • metronome
×
Best way to learn
"Can You Get To That"
Autoscroll
slow
fast
+/-
esc
set tempo
stop
Contributor
Difficulty
Tabbers playing skills
intermediate
advanced
-------------------------------------------------------------------------------
                   Can you get to that - Funkadelic
-------------------------------------------------------------------------------
Tabbed by: Omri Cohen
Email: i.m.bleach@gmail.com

Tuning: standard

In the original version is everything tuned a half step back

I just tabbed my version which is just like the original with some riff placed in
It's a great song to maneuver on…

Intro:
e|----0---0----0----0----0--0---0--0--0--0---0--0--0--0--3--0--0---0--0--2---|
B|-4h5-—4h5—-4h5—-4h5—4h54h5---3--3--3--3—2h32h3--2--2--2--2--2-2-1--1--1----|
G|---------------------------------------------------------------------------|
D|---------------------------------------------------------------------------|
A|---------------------------------------------------------------------------|
E|---------------------------------------------------------------------------|

Verse:
    E                           A
    1     2     3     4         1      2      3    4   
e|--0-----0-0-0-0-0-0--------|--0--0-0-0-0---x-x--3--3-3-3--|
B|--0-----0-0-0-0-0-0-----7~-|--2--2-2-2-2---3-2--2--2-2-2--|
G|--1-1-1-1-1-1-1-1-1-----7~-|--2--2-2-2-2---2-2--2--2-2-2--|
D|--2-2-2-2-----2-2-2—7h9-7~-|--2--2-2-2-2---2-2--2--2-2-2--|
A|--2-2-2-2-----2-2-2--------|--0--0-0-0-0------------------|
E|--0-0-0-0-----0-0-0--------|------------------------------|

The entire song is just the E and A chord


  E
I once had a life, or rather
A
Life had me
      E
I was one among many
      A
Or at least I seemed to be
        E                          A
Well, I read an old quotation in a book just yesterday
            E
Said "Gonna reap just what you sow,
             A
The debts you make you have to pay."
                    
Can you get to that?

E
Can you get (I wanna know)
A
I want to know if you can get to that (hey!) (get to that!)
E
Can you get (can you get to that)(I wanna know)
A
I want to know if you can get to that

It's a really fun song to play, and easy too.


for suggestions/questions/spam/viruses:
i.m.bleach@gmail.com


| /  slide up
| \  slide down
| h  hammer-on
| p  pull-off
| ~  vibrato
| +  harmonic
| x  Mute note
===============================================================================
comments
print report bad tab
5 comments total. Showing first comments.
0 reply
johnr228 wrote on December 17 2013, 11:15 am

F#m instead of A

0 reply
phil.cauchon wrote on February 11 2014, 04:15 pm

I was playing along to the song and i think the little bit between the E and A chords might go a little something like this. Apart from that you did a dope job with this tab

E|-------|
B|-8-7-5-|
G|-7-6-4-|
D|-------|
A|-------|
E|-------|

0 reply
Willycat wrote on October 31 2015, 06:13 am

(F#m) works with (A). I heard it this way. It's a little tricky but all of the added notes are all in the (E) and the (A) chord shapes. Stretching out your pinky finger up to the 4th fret then down to the 3rd fret (while staying in the (E) chord shape) will keep everything lined up for the next move, which is barred at the 2nd fret with a quick pull off back to the (E). marked-(*)

(Corrected after the intro into the verse).


E A/F#m A
( * )
E|--0------0---0---4-3-2p0--|----2---2---2---2---2-----0--|-----------
B|--0------0---0---0---2p0--|----2---2---2---2---2-----2--|----------
G|--1------1---1---1---2p1--|----2---2---2---2---2-----2--|-----------
D|--2----2---2---2-----2----|--4---4---4---4---4---5-4-2--|-----------
A|--2----2---2---2-----2----|--0---0---0---0---0---0---0--|-----------
E|--0----0---0---0-----0----|--x---x---x---x---x---x---x--|-----------

There's a 2nd part at the bridge where they break down that goes
(E, D, A)
You can get to that... if you practice.

I want to post or [tab]
guest
You may want to rate the tab now too:
select rating
Please do not post tabs as comments. Select "correction" instead!