Oops, an error
Loading. Please wait.

Cosmic Slop Bass Tab

version 2
version 2

Whole song

5,214 views 12 this week
2 commentsread comments
1 2 3 4 5
1 last vote to show rating
add to favorites
launch autoscroll
font size
0
reset
guitar tuner
Autoscroll
slow
fast
+/-
esc
set tempo
stop
Help us to improve Ultimate-Guitar.com Take our survey!
×
Cosmic Slop by Funkadelic                www.ultimate-guitar.com
Bassist: Bootsy Collins
Album: Hardcore Jollies

The song has a little intro and thenthe bass line comes in.
It's the same bass line thru out the whole song.

 G-------------------------------|
 D------------------------4-2----|
 A--------------------2-4-----4--|
 E-5-2-2-5-222-22-5-2------------|

Not much to it. i think i'm forgetting a note in there somewhere, but
that's mostly it.
any Q's just email at beasparro@hotmail.com

Have Fun!
Suggest correction
Give kudos to tab author, rate the tab!
1 2 3 4 5
comments
print report bad tab
2 comments total.
0 reply
Majicmanmaj 105 Jul 28, 2006 09:50 AM

Poor Tab

0 reply
g-j246 113 Aug 15, 2008 04:46 AM

G-------------------------------|
D------------------------4-2----|
A--------------------2-5-----4--|
E-5-2-2-5-222-22-5-2------------|
^
|

guest
You may want to rate the tab now too:
select rating
Wanna post a correction for this tab? Suggest correction