Oops, an error
Loading. Please wait.

Cosmic Slop Bass Tab

version 3
version 3

Whole song

6,414 views 24 this week
no commentswrite comment
1 2 3 4 5
excellent!
x 9
add to favorites
launch autoscroll
font size
0
reset
guitar tuner
Autoscroll
slow
fast
+/-
esc
set tempo
stop
Help us to improve Ultimate-Guitar.com Take our survey!
×
Contributor
Difficulty
intermediate
G ------------------------------|
D ------------------------4-2-0-|
A --------------------2-5-------|
E -5-2--255-5----5-2------------|

pretty much all the way through but i also like to play

G ------------------------------|
D ------------------------4-2-0-|
A --------------------2-5-------|
E -5-2---2520h2---2-52----------|

then for a short while later on it changes to to

G ------------------------------|
D ------------------------------|
A --------------40--------------|
E -2-22-0-2-0-5-----------------|

simple as that, requires some speed and practise and a sort of funky beat but a simple 
any questions feel free to ask
comments
print report bad tab
I want to post or [tab]
guest
You may want to rate the tab now too:
select rating
Please do not post tabs as comments. Select "correction" instead!