Oops, an error
Loading. Please wait.

I Got A Thing You Got A Thing Everybodys Got A Thing bass

16 views 1 this week
no commentswrite comment
1 2 3 4 5
2 more votes to show rating
add to favorites
×
Save as Personal and add changes to this tab that will be seen only by you. Learn more ›
×
You can save this tab as Personal to edit and correct it or add notes. All changes will be seen only by you. Learn more »
launch autoscroll
font size
0
reset
guitar tuner
edit
Autoscroll
slow
fast
+/-
esc
set tempo
stop
Artist: Funkadelic
Song: I Got A Thing You Got A Thing Everybodys Got A Thing
Tuning - Standard
Time - 4/4  155bmp
tabbed by electricbunny

[Intro]
G|--------------------------------|--------------------------------|
D|--------------------------------|--------------------------------|
A|--------------------------------|--------------------------------|(x40
E|--------------------------------|--------------------------------|
 
[Verse]                                                             
G|--------------------------------|--------------------------------|
D|--------------------------------|--------------------------------|
A|0-------2-----------------------|--------------------------------|
E|--------------------------------|--------------------------------|
 
G|--------------------------------|--------------------------------|
D|--------------------------------|--------------------------------|
A|0---2---------------------------|--------------------------------|
E|--------------------------------|--------------------------------|
 
G|--------------------------------|--------------------------------|
D|--------------------------------|--------------------------------|
A|0-------2-----------------------|--------------------------------|
E|--------------------------------|--------------------------------|
 
[Chorus]                                                            
G|--------------------------------|--------------------------------|
D|--------------------------------|--------------------------------|
A|0---2---------------------------|--------------------------------|
E|--------------------------------|----------------------------0---|
 
G|--------------------------------|--------------------------------|
D|--------------------------------|--------------------------------|
A|0-------2-----------------------|--------------------------------|
E|--------------------------------|--------------------------------|
 
G|--------------------------------|--------------------------------|
D|--------------------------------|--------------------------------|
A|0---2---------------------------|--------------------------------|
E|--------------------------------|------------0-------1-------2---|
 
G|--------------------------------|--------------------------------|
D|--------------------------------|--------------------------------|
A|0-------2-----------------------|------------0-------------------|
E|--------------------------------|--------------------------------|
 
G|--------------------------------|--------------------------------|
D|--------------------------------|--------------------------------|
A|0---2---------------------------|2-------0---------------2-------|
E|------------------------0---1---|----------------1---2-----------|
 
G|--------------------------------|--------------------------------|
D|--------------------------------|--------------------------------|
A|0-------2-----------------------|0-------0-------0---------------|
E|--------------------------------|--------------------------------|
 
G|--------------------------------|--------------------------------|
D|--------------------------------|--------------------------------|
A|0---2---------------------------|--------------------------------|
E|--------------------------------|--------------------------------|
 
G|--------------------------------|--------------------------------|
D|--------------------------------|--------------------------------|
A|0-------2-----------------------|--------------------------------|
E|--------------------------------|--------------------------------|
 
G|--------------------------------|--------------------------------|
D|--------------------------------|--------------------0-----------|
A|0---2-----------------------0---|2---0---------------------------|
E|------------------------0-------|--------2---0---0---------------|
 
G|--------------------------------|--------------------------------|
D|--------------------------------|--------------------------------|
A|0-------2-----------------------|--------------------------------|
E|--------------------------------|--------------------------------|
 
G|--------------------------------|--------------------------------|
D|--------------------------------|--------------------------------|
A|0---1---------------------------|--------------------------------|
E|--------------------------------|------------0-------2-------3---|
 
G|--------------------------------|--------------------------------|
D|--------------------------------|--------------------------------|
A|0-------2-----------------------|--------------------------------|
E|--------------------------------|----------------------------0---|
 
[Chorus]                                                            
G|--------------------------------|--------------------------------|
D|--------------------------------|------------------------0-------|
A|0---2---------------------------|----0---2-----------------------|
E|--------------------------------|2---------------0---2-----------|
 
G|--------------------------------|--------------------------------|
D|--------------------------------|--------------------------------|
A|0-------2-----------------------|--------------------------------|
E|--------------------------------|--------------------------------|
 
G|--------------------------------|--------------------------------|
D|--------------------------------|--------------------------------|
A|0---2---------------------------|--------------------------------|
E|--------------------------------|--------------------------------|
 
G|--------------------------------|--------------------------------|
D|--------------------------------|--------------------------------|
A|0-------2-----------------------|--------------------------------|
E|--------------------------------|--------------------------------|
 
G|--------------------------------|--------------------------------|
D|--------------------------------|--------------------0-----------|
A|0---2-----------------------0---|2---0---------------------------|
E|------------------------0-------|--------2---0---0---------------|
 
G|--------------------------------|--------------------------------|
D|--------------------------------|--------------------------------|
A|0-------2-----------------------|--------------------------------|
E|--------------------------------|--------------------------------|
 
G|--------------------------------|--------------------------------|
D|--------------------------------|--------------------------------|
A|0---2---------------------------|--------------------------------|
E|--------------------------------|----------------2---1---0---2---|
 
G|--------------------------------|--------------------------------|
D|--------------------------------|--------------------------------|
A|0---2---------------------------|--------------------------------|
E|--------------------------------|--------------------------------|
 
G|--------------------------------|--------------------------------|
D|--------------------------------|--------------------------------|
A|0---2---------------------------|----0---2-----------0-----------|
E|--------------------------------|2---------------2-------0-------|
 
[Instrumental]                                                      
G|--------------------------------|--------------------------------|
D|--------------------------------|--------------------------------|
A|2---2---2---2---2---2---2---2---|2---2---2---2---2---2---2---0---|
E|--------------------------------|--------------------------------|
 
G|--------------------------------|--------------------------------|
D|--------------------------------|--------------------------------|
A|2---2---2---2---2---2---2---2---|2---2---2---2-----------0---0---|
E|--------------------------------|----------------2---2-----------|
 
G|--------------------------------|--------------------------------|
D|--------------------------------|--------------------------------|
A|0---0---0---0---0---0---0---0---|----------------4---4---5---5---|
E|--------------------------------|5---5---5---5-------------------|
 
G|2---2---2---2---2---2---2---2---|2---2---2---2-------------------|
D|--------------------------------|------------------------0---0---|
A|--------------------------------|----------------4---4-----------|
E|--------------------------------|--------------------------------|
 
G|--------------------------------|--------------------------------|
D|2---2---2---2---2---2---2---2---|2---2---2---2---2---2---2---2---|
A|--------------------------------|--------------------------------|
E|--------------------------------|--------------------------------|
 
G|--------------------------------|------------------------2---2---|
D|2---2---2---2---2---2---2---2---|2---2---2---2---2---2-----------|
A|--------------------------------|--------------------------------|
E|--------------------------------|--------------------------------|
 
G|--------------------------------|--------------------------------|
D|--------------------------------|--------------------------------|
A|2---2---2---2---2---2---2---2---|2---2---2---2---2---2---2---2---|
E|--------------------------------|--------------------------------|
 
G|--------------------------------|--------------------------------|
D|--------------------------------|--------------------------------|
A|2---2---2---2---2---2---2---2---|2---2---2---2---2---2---0---1---|
E|--------------------------------|--------------------------------|
 
G|--------------------------------|--------------------------------|
D|--------------------------------|--------------------------------|
A|2---2---2---2---2---2---2---2---|2---2---2---2---2---2---2---2---|
E|--------------------------------|--------------------------------|
 
G|--------------------------------|--------------------------------|
D|--------------------------------|--------------------------------|
A|2---2---2---2---2---2---2---2---|2---2---2---2---2---2-----------|
E|--------------------------------|------------------------2---2---|
 
G|--------------------------------|--------------------------------|
D|--------------------------------|--------------------------------|
A|0---0---0---0---0---0---0---0---|------------------------4---4---|
E|--------------------------------|5---5---5---5---5---5-----------|
 
G|--------2---2---2---2---2---2---|2---2---2---2---2---2-----------|
D|0---0---------------------------|--------------------------------|
A|--------------------------------|------------------------4---4---|
E|--------------------------------|--------------------------------|
 
G|--------------------------------|--------------------------------|
D|0---0---2---2---2---2---2---2---|2---2---2---2---2---2---2---2---|
A|--------------------------------|--------------------------------|
E|--------------------------------|--------------------------------|
 
G|--------------------------------|--------------------------------|
D|2---2---2---2---2---2---2---2---|2---2---2---2---2---2---2---2---|
A|--------------------------------|--------------------------------|
E|--------------------------------|--------------------------------|
 
G|--------------------------------|2---4-----------2---4-----------|
D|--------------------------------|--------------------------------|
A|2---2---2---2---2---2---2---2---|--------2---2-----------2---2---|
E|--------------------------------|--------------------------------|
 
G|2---4-----------2---4-----------|2---4-----------2---4-----------|
D|--------------------------------|--------------------------------|
A|--------2---2-----------2---2---|--------2---2-----------2---2---|
E|--------------------------------|--------------------------------|
 
G|2---4---------------------------|--------------------------------|
D|--------------------------------|--------------------------------|
A|--------------------------------|--------------------------------|
E|------------0-------------------|--------------------------------|
 
[Verse]                                                             
G|--------------------------------|--------------------------------|
D|--------------------------------|--------------------------------|
A|--------------------------------|--------------------------------| (x10)
E|--------------------------------|--------------------------------|
 
G|--------------------------------|--------4---------------7-------|
D|--------------------------------|----7---------------4-----------|
A|--------------------------------|7---------------7---------------|
E|--------------------------------|--------------------------------|
 
G|--------------------------------|--------------------------------|
D|--------------------------------|--------------------------------|
A|0-------2-----------------------|----------------------------0---|
E|--------------------------------|--------------------------------|
 
G|--------------------------------|4---2---------------------------|
D|--------------------------------|--------------------------------|
A|0---2---------------------------|--------------------------------|
E|--------------------------------|--------------------------------|
 
[Instrumental]                                                      
G|--------------------------------|--------------------------------|
D|--------0---------------0-------|----------------0---------------|
A|2---2-----------2---------------|2---2---2---2-------------------| (x3)
E|--------------------------------|--------------------------------|

G|--------------------------------|--------------------------------|
D|--------0---------------0-------|----------------0---------------|
A|2---2-----------2---------------|2---0---------------------------|
E|--------------------------------|--------2---0-------0-----------|
 
G|--------------------------------|--------------------------------|
D|--------0---------------0-------|----------------0---------------|
A|2---2-----------2---------------|2---2---0---0-----------2-------| (x4)
E|--------------------------------|--------------------------------|

G|--------------------------------|--------------------------------|
D|--------------------------------|----------------0---------------|
A|2---2---2-------2-------2-------|2-------2---------------2-------|
E|--------------------------------|--------------------------------|
 
[Outro]                                                             
G|--------------------------------|--------------------------------|
D|--------------------------------|--------------------------------|
A|0-------0-------0-------0-------|0-------0-------0-------0-------|
E|--------------------------------|--------------------------------|
 
G|--------------------------------|--------------------------------|
D|--------------------------------|--------------------------------|
A|2-------2-------2-------2-------|2-------0-------2---2---0-------|
E|--------------------------------|--------------------------------|
 
G|--------------------------------|--------------------------------|
D|0-------0-------0-------0-------|--------------------------------|
A|--------------------------------|5-------5---4-------5---5---5---|
E|--------------------------------|--------------------------------|
 
G|--------------------------------|--------------------------------|
D|--------------------------------|----------------0---------------|
A|2-------2-------2-------2-------|2-------2---------------2-------|
E|--------------------------------|--------------------------------|
 
G|--------------------------------|--------------------------------|
D|--------------------------------|--------------------------------|
A|0-------0-------0-------0-------|0-------0-------0-------0-------|
E|--------------------------------|--------------------------------|
 
G|--------------------------------|--------------------------------|
D|--------------------------------|--------------------------------|
A|2-------2-------2-------2-------|2-------2-------2---0-----------|
E|--------------------------------|------------------------2---0---|
 
G|--------------------------------|
D|--------------------------------|
A|2-------2-------2-------2-------|
E|--------------------------------|

            
            
Suggest correction
Creating personal tab
Creating personal tab
You can edit any tab online and save it as your Personal.

You can edit, replace or remove any tab part or add personal notes – all changes will be seen only by you.

Personal tabs can be accessed anytime from any device, even offline.
Learn more »
Give kudos to tab author, rate the tab!
1 2 3 4 5
comments
print report bad tab
guest
You may want to rate the tab now too:
select rating
Wanna post a correction for this tab? Suggest correction