Oops, an error
Loading. Please wait.

Ill Bet You chords

version 1
version 1

Whole song

  • Funkadelic I'll Bet You - Capo 3 - Link https://ww... Show more
127 views 6 this week
4 commentsread comments
1 2 3 4 5
x 4
add to favorites
×
Save as Personal and add changes to this tab that will be seen only by you. Learn more ›
×
You can save this tab as Personal to edit and correct it or add notes. All changes will be seen only by you. Learn more »
launch autoscroll
font size
0
reset
transpose
0
reset
simplify chords
display chords
guitar tuner
edit
Autoscroll
slow
fast
+/-
esc
set tempo
stop
Strumming
There is no strumming pattern for this song yet. and get +5 IQ
Capo 3

Am   002210
Am7    002010
Asus4  002230
Cadd9  x32030
C      x32010

Bass line
e|-------------------------------------------------------|
B|-------------------------------------------------------|
G|-------------------------------------------------------|
D|-------------------------------------------------------|
A|------------------------0----------------0----3----0---|
E|-0-----3-----0----3----------0-----3-------------3-----|


[Intro]
e|----------------------------------|
B|-----1-----------------1--3--1----|
G|-2-0---2--0--2---2--0-----------2-|
D|----------------------------------|
A|----------------------------------|
E|----------------------------------| x2

                           Wooo!
e|-------------------------------------------------------|
B|-------------------------------------------------------|
G|-------------------------------------------------------|
D|-------------------------------------------------------|
A|------------------------0----------------0----3----0---|
E|-0-----3-----0----3----------0-----3-------------3-----|
Come on, huh!
e|-------------------------------------------------------|
B|-------------------------------------------------------|
G|-------------------------------------------------------|
D|-------------------------------------------------------|
A|------------------------0----------------0----3----0---|
E|-0-----3-----0----3----------0-----3-------------3-----|
Woo-ooh!

[Verse]
Am   Am   Am7 Am  Am  Asus4  Am   Am7  Am
Ice cubes on   a red hot   stove will melt,
Am7 Am  C   Am
and I  bet ya
Am  Am  Am7 Am    Am   Asus4 Am   Am7 Am
A drowning man's very first words is help,
Am7 Am C   Am
and I bet you
Am    Am       Am7 Am          Am     Asus4 Am   Am7 Am
If you bet on  a horse and the horse don't win, you lose
Am7 Am C   Am
and I betcha
Am     Am Am7 Am  Am      Asus4  Am Am7 Am
If you try to sit on air, you're gonna fall,
Am7 Am C   Am
and I betcha

[Chorus]
        C              Am
If you want a winning hand
        C              Am
If you want a perfect man
 Am     Am    Am7     C
Betcha never lose my love
 Cadd9    Am     C   Am
You will win, I betcha
 Am     Am    Am7     C
Betcha never lose my love
 Cadd9    Am     C   Am
You will win, I betcha

[Verse]
 Am  Am  Am7 Am   Am    Asus4 Am     Am7 Am
Take a car without fuel, ain't gonna move,
Am7 Am  C   Am
and I betcha
Am    Am     Am7 Am      Am     Asus4  Am  Am7 Am
A carpenter can't build his house without his tools,
Am7 Am C   Am
and I bet you
Am   Am     Am7 Am     Am    Asus4  Am Am7 Am
If the shoes are too small they hurt your feet,
Am7 Am C   Am
and I betcha
Am   Am     Am7 Am     Am    Asus4  Am Am7 Am
You can't know what's going on if you're asleep,
Am7 Am C   Am
and I bet ya

[Chorus]
        C              Am
If you want a winning hand
        C              Am
If you want a perfect man
 Am     Am    Am7     C
Betcha never lose my love
 Cadd9    Am     C   Am
You will win, I betcha
 Am     Am    Am7     C
Betcha never lose my love
 Cadd9    Am     C   Am
You will win, I betcha

[Interlude]
e|----------------------------------|
B|-----1-----------------1--3--1----|
G|-2-0---2--0--2---2--0-----------2-|
D|----------------------------------|
A|----------------------------------|
E|----------------------------------|
  Ohh,
e|----------------------------------|
B|-----1-----------------1--3--1----|
G|-2-0---2--0--2---2--0-----------2-|
D|----------------------------------|
A|----------------------------------|
E|----------------------------------|
 wowowowowowowowowow

Am Am7 Am Am7   Am Am C Am7 Am
Ah yeah!
Am Am7 Am Am7   Am Am C Am7 Am
OH get down! Uhh!
Am Am7 Am Am7   Am Am C Am7 Am
Come on, come on!
Am Am7 Am Am7   Am Am C Am7 Am

Am Am7 Am Am7   Am Am C Am7 Am
I betcha
Am Am7 Am Am7   Am Am C Am7 Am
You ain't gonna lose
Am Am7 Am Am7   Am Am C Am7 Am
You won't lose
Am Am7 Am Am7   Am Am C Am7 Am
Oh, yeah!

Am Am7 Am Am7   Am Am C Am7 Am

[Outro]
Am Am Am Am7  C  Am Am
Bet you never lose my love
Am Am Am Am7  C  Am Am
Bet you never lose my love
Am Am Am Am7  C  Am Am
Bet you never lose my love, I'm a winner
Am Am Am Am7  C  Am Am
Bet you never lose my love, come on
Am Am Am Am7  C  Am Am
Bet you never lose my love, stuck by you
Am Am Am Am7  C  Am Am
Bet you never lose my love, you can't lose
Am Am Am Am7  C  Am Am
Bet you never lose my love, you stuck by me
Am Am Am Am7  C  Am Am
Bet you never lose my love, bet on me
Am Am Am Am7  C  Am Am
........
Am Am7 Am Am7   Am Am C Am7 Am
......
Am Am Am Am7  C  Am Am
.....

            
            
Suggest correction
Creating personal tab
Creating personal tab
You can edit any tab online and save it as your Personal.

You can edit, replace or remove any tab part or add personal notes – all changes will be seen only by you.

Personal tabs can be accessed anytime from any device, even offline.
Learn more »
comments
print report bad tab
4 comments total. Showing first comments.
0 reply
mattias_ranbr 10 Jun 22, 2017 12:36 AM

Excellent! Thank's a lot. Love this song.

Strumming all the strings in the A-chords gives it the right sound.

guest
You may want to rate the tab now too:
select rating
Wanna post a correction for this tab? Suggest correction