Oops, an error
Loading. Please wait.

Lets Take It To The People Tab

298 views 1 this week
no commentswrite comment
1 2 3 4 5
3 more votes to show rating
add to favorites
launch autoscroll
font size
0
reset
how to read this tab
guitar tuner
Autoscroll
slow
fast
+/-
esc
set tempo
stop
Help us to improve Ultimate-Guitar.com Take our survey!
×
Author
Difficulty
intermediate
FunkadeliC

Let's Take it to the People
(Clinton, Hazel, Shider)
From: The Tales of Kidd Funkadelic   Tab: Mr.KennJHicks

Riff I a

Everything is there...                            (mimics keyboard)
e|-------------------------------------------------------------|
B|---------------------------------------------------8---------|
G|---------------------------------------------------7-9-7-5---|
D|-----------------------5/6-/7-7------7/8-/9--9-------9-7-5---|
A|----------5-/-7—7-7----3/4-/5-5----x-5/6-/7--7---------------|
E|--0-3-0---3-/-5-5-5--------------------------0---------------|

Riff I b,   (played on top of riff I a)
                                 G5 E5 D5 C5
e|-9-9-9-------------------------------------------------------|
B|--------7-7-7--7-9-7----7-9----8-----------------------------|
G|----------------------9--------7--9--7--5--------------------|
D|----------------------------------9--7--5--------------------|
A|-------------------------------------------------------------|
E|-------------------------------------------------------------|

Riff II a,c
Let’s take it to the people..
e|-------------------------------------------------------------|
B|--9------------------9-9-9-9---9-x-x-9---8-7----7------------|
G|--9------------------9-9-9-9---9-x-x-9---7-6-9--6------------|
D|--9----------7-9-7---9-9-9-9---9-x-x-9-------9---------------|
A|--7---7-8-9----------7-7-7-7---7-x-x-9-----------------------|
E|-------------------------------------------------------------|

Riff II b
e|-------------------------------------------------------------|
B|--9------------------9-9-9-9---9-x-x-9---8-7-----------------|
G|--9------------------9-9-9-9---9-x-x-9---7-6-9---------------|
D|--9----------7-9-7---9-9-9-9---9-x-x-9-------9---------------|
A|--7---7-8-9----------7-7-7-7---7-x-x-9-----------------------|
E|-------------------------------------------------------------|

Riff II d
e|--------------------7---------------------------9------------|
B|--------------------7-7---------------------------8-8--------|
G|-------------7-9-7-----------------------9-11-9--------------|
D|------7-8-9---------------------9-10-11----------------------|
A|---7---------------------7-8-9-------------------------------|
E|---5---------------------5-6-7-------------------------------|

Outro, harmony with riff I b (also played on top of riff I a)
                                        G5 E5 D5 C5
e|--12-12-12--10-10-10--9-9-9-----9-10-------------------------|
B|----------------------------12---------8---------------------|
G|---------------------------------------7--9--7--5------------|
D|------------------------------------------9--7--5------------|
A|-------------------------------------------------------------|
E|-------------------------------------------------------------|
Suggest correction
Give kudos to tab author, rate the tab!
1 2 3 4 5
comments
print report bad tab
guest
You may want to rate the tab now too:
select rating
Wanna post a correction for this tab? Suggest correction