Oops, an error
Loading. Please wait.

Maggot Brain Tab

version 1
version 1

Intro

Whole song

Interactive

9,260 views 6 this week
no commentswrite comment
1 2 3 4 5
please rate
add to favorites
launch autoscroll
font size
0
reset
how to read this tab
guitar tuner
Autoscroll
slow
fast
+/-
esc
set tempo
stop
Help us to improve Ultimate-Guitar.com Take our survey!
×
Author
                           Maggot Brain - Funkadelic

Tabbed by: HTOJ
Email: holyturdsofjesus@gmail.com

Tuning: Standard

I've tab the intro(or what I believe to be the intro), the rest is just more
soloing on the Em Pentatonic. He uses distortion and delay, and kicks in
the Wah once he gets a bit into it. Key is at bottom.

Rhythm Section

Repeats throughout and is played with a lot of bass.

e|---------------------------------------------------------------------------|
B|-------8-----------8-----------7-----------7-------------7-----------7-----|
G|-----9---9-------9---9-------7---7-------7---7---------7---7-------7---7---|
D|---9-------9---9-------9---7-------7---7-------7-----9-------9---9-------9-|
A|-7-----------7-----------5-----------5-----------5-------------------------|
E|---------------------------------------------------7-----------7-----------|

e|--------------------------------------|
B|--------8-------------8---------------|
G|------9---9---------9---9-------------|
D|---10-------10---10-------10----------|
A|--------------------------------------|
E|-8-------------8-------------8--------|

Lead Guitar

e|----------------------------------------------------------------------------|
B|-15b--15pb~~~---15b--15-12-15-12----------------------------------15--------|
G|---------------------------------14-12h14------------12-14-14b~~~---14pb-14-|
D|-----------------------------------------------12-14------------------------|
A|----------------------------------------------------------------------------|
E|----------------------------------------------------------------------------|

e|----------------------------------------------------------------------------|
B|----------------------------------------------------------------------15b~~-|
G|-12h14-----------------12h14~b-12h14-12----14-------------------------------|
D|------------12h14-------------------------------12h14------------12---------|
A|-----------------------------------------------------------13/14------------|
E|----------------------------------------------------------------------------|

e|---------------------------------------------------------------------------|
B|-15pb~~~-15b-15-12-15-12---------------------------------------------------|
G|-----------------------14b-14-12h14-----14brb--14brb--14brb-12-14~~-14b-12-|
D|---------------------------------------------------------------------------|
A|---------------------------------------------------------------------------|
E|---------------------------------------------------------------------------|

e|---------------------------------------------------------------------------|
B|----------------------------------------------------------15------15-------|
G|------------12-14b-12-----------------14b-12-14----12-14b----14br----12-14-|
D|-14---12-14-----------14-----12-14-12-----------14-------------------------|
A|---------------------------------------------------------------------------|
E|---------------------------------------------------------------------------|

                                  Wah On
e|-------------------------------------15------------------------------------|
B|--------------12h15-15b-15b-15b-15b~~--15b~rb-12-15b-12--------------------|
G|-12h14p12----------------------------------------------14---12-14brb~~~----|
D|---------------------------------------------------------------------------|
A|---------------------------------------------------------------------------|
E|---------------------------------------------------------------------------|

e|---------------------------------------------------------------------------|
B|---------------------------------------------------------------------------|
G|-------12----------14brb-12-14--------12-14b-14b----14b-14b----14b-14b-----|
D|-12-14----14-12-14--------------12-14--------------------------------------|
A|---------------------------------------------------------------------------|
E|---------------------------------------------------------------------------|

e|---------------------------------------------------------------------------|
B|-----15-----------------------------------------------------------------12-|
G|-14b----14b-12h14----12-14b-12-----------------------------12-14~~~--14----|
D|-------------------------------14--------------12-14-12-14-----------------|
A|--------------------------------------12-12-14-----------------------------|
E|---------------------------------------------------------------------------|

e|---------------------------------------------------------------------------|
B|-15b-15b~-15brb-12-15-12-------15b-15b~rb~brb~b-12h15-12-------------12----|
G|-------------------------14-12~--------------------------14brb-12-14---12--|
D|---------------------------------------------------------------------------|
A|---------------------------------------------------------------------------|
E|---------------------------------------------------------------------------|

e|---------------------------------------------------------------------------|
B|---------------------------------------------------------------------------|
G|-------12-14b---------12-14brb---------12-14b---------12-14brb---------12--|
D|-12-14----------12-14------------12-14----------12-14------------12-14-----|
A|---------------------------------------------------------------------------|
E|---------------------------------------------------------------------------|

e|---------------------------------------------------------------------------|
B|---------------------------------------------------------------------------|
G|-14b-12------------12-14brbp12------------12-14brb-------12-14-14brb-12----|
D|--------14---12-14-------------14---12-14----------12-14----------------14-|
A|---------------------------------------------------------------------------|
E|---------------------------------------------------------------------------|

e|---------------------------------------------------------------------------|
B|---------------------------------------------------------------------------|
G|-12h14-12--------------------------12-11-11------12------------------------|
D|----------14-----------12-14-12-14------------------14---------------------|
A|-----------------12-14------------------------------------12-14-12---------|
E|-------------------------------------------------------------------15------|


************************************

| /   slide up
| \   slide down
| h   hammer-on
| p   pull-off
| ~   vibrato
| +   harmonic
| x   Mute note
| b   Bend
| pb  Pre-bend
| br  Bend release
| pbr Pre-bend release
| brb Bend release bend

************************************
Suggest correction
Give kudos to tab author, rate the tab!
1 2 3 4 5
comments
print report bad tab
guest
You may want to rate the tab now too:
select rating
Wanna post a correction for this tab? Suggest correction