Oops, an error
Loading. Please wait.

Maggot Brain solo tab

version 2
version 2

Solo

Whole song

Interactive

2,840 views 24 this week
2 commentsread comments
1 2 3 4 5
x 4
add to favorites
×
Save as Personal and add changes to this tab that will be seen only by you. Learn more ›
×
You can save this tab as Personal to edit and correct it or add notes. All changes will be seen only by you. Learn more »
launch autoscroll
font size
0
reset
how to read this tab
guitar tuner
backing track
0:00
0:00
edit
Autoscroll
slow
fast
+/-
esc
set tempo
stop
Author
Difficulty
-------------------------------------------------------------------------------
                        Maggot Brain (Alternative Mix)
-------------------------------------------------------------------------------
Tabbed by:jmaves028

This is the tab for the Maggot Brain solo. I listened to the Alternative mix for this 
tab. I included time stamps so it would be easier to follow along, the tab itself is not 
too specific on timing.
Like all great solos, just feel it out! Not 100% perfect (some of the delay-heavy bits 
are tricky to hear)
but should be good groundwork for anyone who wants to jam along to the song.

I'm sure an extra set of eyes will turn up some silly mistakes. Be nice, it's my first 
tab! :)

Tuning:EADGBe

b=bend
r=release
~=vibrato
.=palm mute
/=slide
tr=trill

e|---------------------------------------------------------------------------|
B|---15b---15b~----15b--15-12-15-12-------------------------------15---------|
G|----------------------------------14-12-14~----------11-12-14~----14b-14-12|
D|-----------------------------------------------12-14-----------------------|
A|---------------------------------------------------------------------------|
E|---------------------------------------------------------------------------|
0:43

e|---------------------------------------------------------------------------|
B|----------------------------------------------------15b-15b~--15b15-12-----|
G|-14~-----------12h14-14b--14-12~--14---------------------------------------|
D|--------12h14----------------------14~--------12---------------------------|
A|----------------------------------------12h14------------------------------|
E|---------------------------------------------------------------------------|
0:57

e|---------------------------------------------------------------------------|
B|-12h15-12------------------------------------------------------------------|
G|-----------14b-14-12h14~---r14-r14-r14-12-14~--14b12------------12-14b12---|
D|-----------------------------------------------------14~---12-14--------14~|
A|---------------------------------------------------------------------------|
E|---------------------------------------------------------------------------|
1:12

e|--------------------------------------------------------------12--12--12---|
B|-----------------------15-----------------------------12h15---15b-15b-15b--|
G|--------14b12-1412--14b---14b-r14--12-14-12h14p12~-------------------------|
D|-121412--------------------------------------------------------------------|
A|---------------------------------------------------------------------------|
E|---------------------------------------------------------------------------|
1:20

e|-----15-12~----------------------------------------------------------------|
B|-15~--------15-12-15b12----------------------------------------------------|
G|------------------------14-12-14b-14~------12--12-14-14br14-12-14~---------|
D|--------------------------------------12-14--14----------------------------|
A|---------------------------------------------------------------------------|
E|---------------------------------------------------------------------------|
1:29

e|---------------------------------------------------------------------------|
B|------------------------------------------15-------------------------------|
G|------12-14-14b-14b--14b-14b--14b-14b--14b--14b--12h14-12-14br12-----------|
D|-12-14----------------------------------------------------------14~--------|
A|---------------------------------------------------------------------------|
E|---------------------------------------------------------------------------|
1:37

e|---------------------------------------------------------------------------|
B|-------------------------------15b15b~-15b~-121512------------15b15b-15b15b|
G|---------------------14b-12~----------------------14-12~-12~---------------|
D|---------12--121412--------------------------------------------------------|
A|12-141214--14--------------------------------------------------------------|
E|---------------------------------------------------------------------------|
1:46

e|---------------------------------------------------------------------------|
B|-121512----12--------------------------------------------------------------|
G|-------14b----14b-12~--------12-14b------14br-----1214b-----1214br---------|
D|------------------------12h14-------12h14-----1214------1214---------------|
A|---------------------------------------------------------------------------|
E|---------------------------------------------------------------------------|
1:57

e|---------------------------------------------------------------------------|
B|---------------------------------------------------------------------------|
G|-----1214b14---------1214br12---------1214br12--1214br12-----14br12--------|
D|-1214-------14~--1214--------14b--1214--------14--------14----------14~----|
A|---------------------------------------------------------------------------|
E|---------------------------------------------------------------------------|
2:06

e|---------------------------------------------------------------------------|
B|---------------------------------------------------------------------------|
G|------------12-11~---------------------------------------------------------|
D|------12--12--------12-9~-----7h9-7----------------------------------------|
A|-12h14--14-------------------------10/12~---12p1012p10-9h10-10h12-10p9-10p9|
E|---------------------------------------------------------------------------|
2:11

e|---------------------------------------------------------------------------|
B|---------------------------------------------------------------------------|
G|-------------------------------------------------------12-14-14b--14br12---|
D|---------------------------------------12--12-----12--12----------------14~|
A|-7h9p7-5/7~-----/14-12h14p12/10~----/14--14----0-12-14--14-----------------|
E|--------------0-----------------0------------------------------------------|
2:28

e|---------------------------------------------------------------------------|
B|---------------------------------------------------------------------------|
G|------------14br12-------------------7tr9-7b-----7-7-6h7------7-7/6h5------|
D|-7b-7br5----------14~---7b-7br5-----9---------7-9---------7h9--------------|
A|--------7~---------------------7~---------------------------------------0--|
E|-------------------------------------------------------0-------------------|
2:45

e|---------------------------------------------------------------------------|
B|-----------------------------------------------------------8h10p8----------|
G|----7-7/6h9----------6-7-9-7p6-7h9-7-9-7p6-7h9-7-9-7p6-7h9--------9br7-----|
D|-7h9-------------/7-9------------------------------------------------------|
A|--------------0------------------------------------------------------------|
E|---------------------------------------------------------------------------|
3:00

e|---------------------------------------------------------------------------|
B|-8h10p8----8h10p8----10br8----10br8----10br8----10b10p8-----10b-8----------|
G|-------9-7-------9-7------9-7------9-7------9-7--------9-7h9------9-7-9----|
D|---------------------------------------------------------------------------|
A|---------------------------------------------------------------------------|
E|---------------------------------------------------------------------------|
3:10

e|---------------------------------------------------------------------------|
B|-10b-10p8-10p8-----8---10b-10p8-10p8--8-----8-----10b-10p8-10p8---8-----8--|
G|--------------9-7h9-9---------------9b-9p7-9-9/7----------------9b-9p7-9-97|
D|---------------------------------------------------------------------------|
A|---------------------------------------------------------------------------|
E|---------------------------------------------------------------------------|
3:16

e|----------------------------------------------12--12--12--12---------------|
B|-10b-10p8-10p8--8-----8-------------------10/15b~15b~15b~15b~15b~-15br12---|
G|--------------9b-9p7-9-9/7---14br12-------------------------------------12~|
D|-----------------------------------14p12-----------------------------------|
A|----------------------------(^repeat 15x)----------------------------------|
E|---------------------------------------------------------------------------|
3:24

e|--12-12-12-12-12---------------------------------12-12-12-12-----14-14-14--|
B|-15b15b15b15b15b-------------------------------/15b15b15b15b15--17b17b17b~-|
G|------------------12-12h14p12~-10/12-12h14p12~-----------------------------|
D|---------------------------------------------------------------------------|
A|---------------------------------------------------------------------------|
E|---------------------------------------------------------------------------|
3:41

e|----------------------17b-17r15--17b-17r15---17b17p15---17b-17b17b17b17b~--|
B|-17p15-17p15-17p15-17~---------17---------17~--------17--------------------|
G|---------------------------------------------------------------------------|
D|---------------------------------------------------------------------------|
A|---------------------------------------------------------------------------|
E|---------------------------------------------------------------------------|
3:51

e|-17br15p0-20b20b~-----------------20b20b20b~---------------------20b20b20b~|
B|----------------------12tr15-----------------20br17-20p17-17~--------------|
G|----------------------------14p12~--------------------------1919b~---------|
D|-----------------/12h14----------------------------------------------------|
A|---------------------------------------------------------------------------|
E|---------------------------------------------------------------------------|
3:58

e|-17b-17p15---17b-17p15-----------------------------------------------------|
B|----------17b---------17b~--17br17br17br17br17-17b-17b~---15h17b17b~-------|
G|----------------------------(^pick each bend up & down)--------------------|
D|---------------------------------------------------------------------------|
A|---------------------------------------------------------------------------|
E|---------------------------------------------------------------------------|
4:09

e|-----------------------18b-18br18br18br18br18~-----------------------------|
B|-15h17b17b~-15h17b17b~-----------------------------------------------------|
G|-------------------------------------------------------(Keyboard/mellotron-|
D|--------------------------------------------------------------- part)------|
A|---------------------------------------------------------------------------|
E|---------------------------------------------------------------------------|
4:16

e|--5p05p0p5p05p05p05p3---------------------0--0---0-------------------------|
B|-----------------------3/5/7/8/7-7------3/5/7/8/10/12p10----10h12-10-------|
G|-------------------------------------------------------------.--.--.12-----|
D|------(Very lightly)-------------------------------------------------.-----|
A|---------------------------------------------------------------------------|
E|---------------------------------------------------------------------------|
4:34

e|---------------------------------------------------------------------------|
B|-10h12-10----12-10---10-----12-14-15-14-12---------------15b---------------|
G|--.--.--.12---.--.-12-.-------------------14-12----------------------------|
D|--------------------.--------------------------14p12h14--------------------|
A|-------------(^repeat 6x)--------------------------------------------------|
E|---------------------------------------------------------------------------|
4:55

e|---------------------------------------------------------------------------|
B|-12-14-15-14-12------------------------15----------------------------------|
G|---------------14-12--12h14p12------14b--14br12-14-14br12-14-14br12-14-----|
D|--------------------14-----------------------------------------------------|
A|---------------------------------------------------------------------------|
E|---------------------------------------------------------------------------|
5:05

e|---------------------------------------------------------------------------|
B|---------------------15----------------------------------------------------|
G|-14br12-14-14br12-14b--14-12h14p12------12h14p12--------------12h14--------|
D|----------------------------------14--12--------14------12-14--------------|
A|-----------------------------------------------------/14-------------------|
E|---------------------------------------------------------------------------|
5:19

e|--------------------------------------15-----------------------15----------|
B|------------------------------------15b--15p12---------------15b-15p12-----|
G|-12-14/16-14------14/16-14/12-12h14-----------14/16-14-14/12---------------|
D|-------------14p12---------------------------------------------------------|
A|---------------------------------------------------------------------------|
E|---------------------------------------------------------------------------|
5:24

e|----------15------------15---------------------15--------------------------|
B|-x-12~--15b-x-14p12~--15b--15p1215p12--------15b--15p1215p12---------------|
G|-x----------x------------------------14p12~-----------------14p12----------|
D|---------------------------------------------------------------------------|
A|---------------------------------------------------------------------------|
E|---------------------------------------------------------------------------|
5:31

e|---------------------------------------------------------------------------|
B|-15p12-----15p12-----15p12-----15p1215p12--15p1215p12--15p12---------------|
G|------14-12-----14-12-----14-12----------12----------12-----14p12-14b14p12-|
D|-------------------------------------------------------------------------14|
A|---------------------------------------------------------------------------|
E|---------------------------------------------------------------------------|
5:38

e|---------------------------------------------------------------------------|
B|---------------------------------------------------------------------------|
G|---x-----------------------------------------------------------------------|
D|-x-x-----------------------------------------------------------------------|
A|-x-x---------12-14/17--17p15-15-17p15-15-17p15-15-17p15-15-17p15-15-17p15--|
E|-x-----/12-14--------------------------------------------------------------|
5:44






e|---------------------------------------------------------------------------|
B|---------------------------------------------------------------------------|
G|---------------------------------------------------------------------------|
D|------------------------------17~------------------------------------------|
A|-15-17p15-15-17p15-15-17p15-15-----------12-14/17-17p15-15-17p15-15-17p15--|
E|-----------------------------------/12-14----------------------------------|
5:48

e|---------------------------------------------------------------------------|
B|---------------------------------------------------------------------------|
G|---------------------------------------------------------------------------|
D|----------------------xx-17-x----------------------------------------17x---|
A|-15-17p15-15-17p15-15-xx-17-x--------12-14/17-17p15-15-17p15-15-17p15--x---|
E|-------------------------------/12-14--------------------------------------|
5:53

e|---------------------------------------------------------------------------|
B|----------------------------------------15-15-15-15------------------------|
G|--------------------------------------14b--14b14b14br-14~14~---------------|
D|------------17---------------------12--------------------------------------|
A|-17-17p15-15--15-17-----------12-14----------------------------------------|
E|---------------------/12-12h14---------------------------------------------|
5:58

e|---------------------------------------------------------------------------|
B|-3-3333-33-333333---5--33333333-5555555555-777777777--101010101010101010---|
G|-4-4444-44-444444---6--44444444-6666666666-888888888--101010101010101010---|
D|---------------------------------------------------------------------------|
A|----------------Strum this lightly w/ delay--------------------------------|
E|---------------------------------------------------------------------------|
6:06

e|---------------------------------------------------------------------------|
B|-15b-15b15b~-15b15b--15b15br12--15b15p12--15p1215p12---------0-15b15br15br-|
G|--------------.--.-----------------------------------14p12~--0-------------|
D|---------------------------------------------------------------------------|
A|--(Heavy gain)-------------------------------------------------------------|
E|---------------------------------------------------------------------------|
6:25

e|---------------------------------------------------------------------------|
B|-x17b17br17b17b~-17b17br17b17br-17/19-19~---15-17---15-17-----15h17p15-----|
G|-x-----------------------------------------------15b-----16b----------16b--|
D|---------------------------------------------------------------------------|
A|---------------------------------------------------------------------------|
E|---------------------------------------------------------------------------|
6:36

e|-------------------------------------0-17b-15--0---17b-15--0-00--17b-15---0|
B|----15h17p15---15h17p15----15h17b~~----------17~~-------17~~-----------17~-|
G|-16b--------16b--------16b-------------------------------------------------|
D|---------------------------------------------------------------------------|
A|---------------------------------------------------------------------------|
E|---------------------------------------------------------------------------|
6:44

e|-17b-15---0-00--17b17br15-17-17b17br15-17-17b17br15----17br15p0------------|
B|-------17~~----------------------------------------17----------17b---------|
G|---------------------------------------------------------------------------|
D|---------------------------------------------------------------------------|
A|---------------------------------------------------------------------------|
E|---------------------------------------------------------------------------|
6:54

e|-17br15p0------17br15p0----17br15p0---17br15---17h18p15---17h18p15---------|
B|---------17b-----------17b---------17b------17b--------17b--------17b------|
G|---------------------------------------------------------------------------|
D|---------------------------------------------------------------------------|
A|---------------------------------------------------------------------------|
E|---------------------------------------------------------------------------|
7:01

e|-18p17p15---18p17p15----0-21b----------------------------------------------|
B|---------17b--------17b-------20b-20p17---17-------------------------------|
G|----------------------------20b--------19b--19p16-19p16---16---------------|
D|-------------------------------------------------------19b--19p1719p17-----|
A|----------------------------------------------------------------------19~--|
E|---------------------------------------------------------------------------|
7:05

e|---------------------------------------------------------------------------|
B|--------------------------------15-----------------------------------------|
G|--------------------------12-14b--14br12-14br12-14b14~--14b14p12--14b14p12-|
D|-----------------------/14--------------------------------------14---------|
A|----17h19-17-16-1717~------------------------------------------------------|
E|-/19-----------------------------------------------------------------------|
7:11

e|-------------------------------------------12--------151515/1717/191919----|
B|-15b-151715171517-17~17~------15b~15b~-----x--14b~---151515/1717/191919----|
G|--------------------------12------------12-x---------x---------------------|
D|--------------------------12------------12-x---------x---------------------|
A|--------------------------0-------------xx-x---------0---------------------|
E|--------------------------0-------------xx-x---------0---------------------|
7:18

e|--------------------------151515/171717/191919--17b~-15h1717~--------------|
B|-17b--1517-17b17b---------151515/171717/191919-----------------------------|
G|----16------------121412~-x------------------------------------------------|
D|--------------------------x------------------------------------------------|
A|--------------------------0------------------------------------------------|
E|--------------------------0------------------------------------------------|
7:31

e|-15151517171919---------------17b-1517b-1517b-1517b------------------------|
B|-15151517171919-----1517151715------------------------1515-15-15-15-15-15--|
G|-----------------/17--------------------------------/17---17-17-17-17-17-17|
D|---------------------------------------------------------------------------|
A|---------------------------------------------------------------------------|
E|---------------------------------------------------------------------------|
7:38

e|---------------------------------------------------------------------------|
B|---------------------------------------------------------------------------|
G|-3b~~~---------------------------------------------------------------------|
D|---------------------------------7-7h9-7-9-7h9p7/5h7-7b~-5-5h7p5-7---------|
A|--------------------------------7-------------------------------7-5~-------|
E|------------3~~~------3/5/7~~--7-------------------------------------------|
7:48

e|---------------------------------------------------------------------------|
B|------------------------------------------------------------------12tr15---|
G|---------------------------------14-12-14-12-------12-14p12-12-------------|
D|---12-11------12-11-----1211---------------------14------------------------|
A|---------------------------------------------------------------------------|
E|-12---------12---------12--------------------------------------------------|
8:08

e|-----------------------------------------------------------15--15p12-------|
B|---------------------12tr15-----------------------------15b----------1515--|
G|-14-12/9------------14b-------------------12-14b-14------------------------|
D|-------------------------------------12-14---------------------------------|
A|-(very lightly)-------------------/14--------------------------------------|
E|---------------------------------------------------------------------------|
8:28

e|--15p12-----15p12----------------------------------------------------------|
B|-------1515------1515----------12-15-12----------12-15-12------------------|
G|---------------------------1414---------14-12-14---------14-12-14----------|
D|-------------------------------------------------(Repeat 8x)---------------|
A|---------------------------------------------------------------------------|
E|---------------------------------------------------------------------------|
8:40

e|---------------------151515-1717-1919----------------15--------------------|
B|-15p12---15p12-------151515-1717-1919---17-17-17~--x-15-17~--17b-17br------|
G|------14------14-----------------------------------------------------16----|
D|---------------------------------------------------------------------------|
A|---------------------------------------------------------------------------|
E|---------------------------------------------------------------------------|
8:48

e|--------------------------------151517171919-------------------------------|
B|-15h17~17~--/15p1215p12---------17~--17~--17~--17~17~-15-17-1919~----------|
G|-----------------------14-12~----------------------------------------------|
D|---------------------------------------------------------------------------|
A|---------------------------------------------------------------------------|
E|---------------------------------------------------------------------------|
8:58

e|-14-14---14---14-------14------15------------------------------------------|
B|-17b--17b---17b-17b--17b-17b-17b-------15h17p15--15-17-----15h17p15--------|
G|------------------------------------16b--------16-------16b--------16b-----|
D|---------------------------------------------------------------------------|
A|---------------------------------------------------------------------------|
E|---------------------------------------------------------------------------|
9:07

e|----------------------------------------------15-12----------------15-12~--|
B|-15h17p15---15h17-17b~------15b-----15b15b---------12-15br12---------------|
G|---------16b------------------------------------------------14-------------|
D|---------------------------------------------------------------------------|
A|------------------------------------------------------------(Fade out)-----|
E|---------------------------------------------------------------------------|
9:11-end
Suggest correction
Creating personal tab
Creating personal tab
You can edit any tab online and save it as your Personal.

You can edit, replace or remove any tab part or add personal notes – all changes will be seen only by you.

Personal tabs can be accessed anytime from any device, even offline.
Learn more »
comments
print report bad tab
2 comments total.
+1 reply
pluralofalcesalces 10 Nov 05, 2015 12:39 PM

Fretwanking to the max

0 reply
RodgerRabbit 10 Jan 13, 2016 12:08 PM

brilliant tab thank you

guest
You may want to rate the tab now too:
select rating
Wanna post a correction for this tab? Suggest correction