Oops, an error
Loading. Please wait.

Maggot Brain tab

version 4
version 4

Whole song

Interactive

1,093 views 18 this week
2 commentsread comments
1 2 3 4 5
x 11
add to favorites
×
Save as Personal and add changes to this tab that will be seen only by you. Learn more ›
×
You can save this tab as Personal to edit and correct it or add notes. All changes will be seen only by you. Learn more »
launch autoscroll
font size
0
reset
how to read this tab
guitar tuner
backing track
0:00
0:00
edit
Autoscroll
slow
fast
+/-
esc
set tempo
stop
Author
About this tab version
It is a full transcription, as opposed to others which only do half of the song, or less. Was this info helpful? Yes No
-----------------------------------------------------------------
                   Maggot Brain - Funkadelic
-----------------------------------------------------------------

Tabbed By : Aeonoptic
e-mail: aeonoptic@gmail.com

Tuning: EADGBe

Rhythm Part:
  Em                      D                       Bm                      C
E|-----------|-----------|-----------|-----------|-----------|-----------|-------------|-------------|
B|------8----|------8----|------7----|------7----|------7----|------7----|-------8-----|-------8-----|
G|----9---9--|----9---9--|----7---7--|----7---7--|----7---7--|----7---7--|-----9---9---|-----9---9---|
D|--9-------9|--9-------9|--7-------7|--7-------7|--9-------9|--9-------9|--10-------10|--10-------10|
A|7----------|7----------|5----------|5----------|-----------|-----------|-------------|-------------|
E|-----------|-----------|-----------|-----------|7----------|7----------|8------------|8------------|

Note in the solo transcription I'll just put a line for the chord change, not each bar

  Em                 D                                   Bm
E|-------12~--------|-----------------------------------|-----------------------------------|
B|15b17--------15b17|15-12-15-12------------------------|-------15--------------------------|
G|------------------|------------14-12h14~------11-12-14|14b16-----14b16-14-12-14~~---------|
D|------------------|------------------------14---------|------------------------------12h14|
A|------------------|-----------------------------------|-----------------------------------|
E|------------------|-----------------------------------|-----------------------------------|

  C
E|-----------------------------------------|------12~~~~-------------------------------|
B|-----------------------------------------|15b17---------15b17-15-12-15-12------------|
G|12h14b16--14h16-12~~--14-----------------|--------------------------------14b16-14-12|
D|-------------------------12h14~--------12|-------------------------------------------|
A|---------------------------------12h14---|-------------------------------------------|
E|-----------------------------------------|-------------------------------------------|
  
  D                                   Bm
E|-----------------------------------|-------------------------------------------------|
B|-----------------------------------|-------------------------------------------------|
G|14~~---14pbr16--14pbr16--14pbr16-12|14~~--14b16-12-----------12-14b16-12-------------|
D|-----------------------------------|---------------14--12-14-------------14--12-14-12|
A|-----------------------------------|-------------------------------------------------|
E|-----------------------------------|-------------------------------------------------|

  C
E|-------------------------------------------------------------12------|
B|----------------------------15----12-------------------12h15----15b17|
G|14b16-12-14--------12-14b16----14----12-14-12h14p12~~----------------|
D|------------14--14---------------------------------------------------|
A|---------------------------------------------------------------------|
E|---------------------------------------------------------------------|

  Em                                          D
E|-------------15----------------------------|----------------------------------------------------|
B|15b17-15b17-----15pbr17--12-15b17-12-------|----------------------------------------------------|
G|-------------------------------------14--12|14br16~~-----------11-12-14--14br16-12-14~--------12|
D|-------------------------------------------|----------12-14-12--------------------------12-14---|
A|-------------------------------------------|----------------------------------------------------|
E|-------------------------------------------|----------------------------------------------------|

  Bm                                                 C       
E|-------------------------------------------------|---------------------------------------------------------|
B|--------------------------------------12-15------|---------------------------------------------------------|
G|14b16-14b16--14b16-14b16-14b16-14b16-------14b16|12h14~--12-14b16-12----------------------12-11-12/14-14-12|
D|-------------------------------------------------|--------------------14-------12-11-12-14-----------------|
A|-------------------------------------------------|-----------------------12-14-----------------------------|
E|-------------------------------------------------|---------------------------------------------------------|

  Em                                        D
E|-----------------------------------------|---------------------------------------------|
B|15b17-15b17--15b17--12h15p12-------------|15b17-15brbrb17--12h15p12--------------12----|
G|-----------------------------14-12~~-12~~|--------------------------14br16p12-14----12~|
D|-----------------------------------------|---------------------------------------------|
A|-----------------------------------------|---------------------------------------------|
E|-----------------------------------------|---------------------------------------------|

  Bm
E|----------------------------------------------------------------|
B|----------------------------------------------------------------|
G|------12-14b16--------12-14br16--------12-14b16--------12-14br16|
D|12-14-----------12-14------------12-14-----------12-14----------|
A|----------------------------------------------------------------|
E|----------------------------------------------------------------|

  C
E|----------------------------------------------------------------------------------------------------|
B|----------------------------------------------------------------------------------------------------|
G|------12-14b16-12-----------12-14br16p12-----------12-14br16p12----------12-14br16p12----12h14-12---|
D|12h14-------------14--12h14--------------14--12h14--------------14-12/14--------------14----------14|
A|----------------------------------------------------------------------------------------------------|
E|----------------------------------------------------------------------------------------------------|

  Em                                D        Bm                   C           Em
E|---------------------------------|--------|--------------------|-----------|------------------------|
B|---------------------------------|--------|--------------------|-----------|------------------------|
G|-----------------------12-11-11~~|--------|--------------------|-----------|------------------------|
D|~~~--------12-14-12-14-----------|12p9~~~~|7b9-7-5-5h7~~--5-7-5|4/5-5h7----|---7/9-7-----------12---|
A|-----12-14-----------------------|--------|--------------------|--------7~~|---------10-7~--14----14|
E|---------------------------------|--------|--------------------|-----------|0-----------------------|

  D                                     Bm                        C
E|-------------------------------------|-------------------------|------------------------------|
B|-------------------------------------|-------------------------|------------------------------|
G|--------------------------12\11-11/12|14b16--12----------------|14br16p12---------------------|
D|12~~----------11/12-12h14------------|----------14~~--7b9-5----|----------14~~--5-5-7br9p5----|
A|--------12h14------------------------|----------------------7~~|---------------------------7~~|
E|-------------------------------------|-------------------------|------------------------------|
 
  Em                                                         D
E|----------------------------------------------------------|-------------------------------|
B|----------------------------------------------------------|-------------------------------|
G|----------------------------------------------------------|-------------------------------|
D|12h14p12h14p12---------11-12-11-12-12~--------11-12-11-12~|------11-12-14------------11-12|
A|-----------------12-14------------------12-14-------------|12-14----------12---12-12------|
E|----------------------------------------------------------|-------------------------------|

  Bm
E|--------------------------------------------------------------------------|
B|--------------------------------------------------------------------------|
G|------------------------------------------------------------------12h14-12|
D|12-14-12-11-12-14-12-11-12-14-12-11-12-14-12-11-12-14-12-11-12-14---------|
A|--------------------------------------------------------------------------|
E|--------------------------------------------------------------------------|

  C
E|------------------------------------------------------------------------------------------------|
B|------------------------------------------------------------------------------------------------|
G|-------12h14-12-------12h14-12-------14b16-12-------14b16-12-------14b16-12-------14b16-12------|
D|14-12-----------14-12----------14-12----------14-12----------14-12----------14-12----------14-12|
A|------------------------------------------------------------------------------------------------|
E|------------------------------------------------------------------------------------------------|

  Em
E|------------------------------------------------------------------------------------------|
B|------------------------------------------------------------------------------------------|
G|14b16-14-12-14-12----14b16-12-------------14b16-14-12-14-12----14b16-12----------12b------|
D|------------------14----------14-12-14-12-------------------14----------14-12-14-----14-12|
A|------------------------------------------------------------------------------------------| 
E|------------------------------------------------------------------------------------------|

  D
E|------------------------------------------------------------------------------------------------------|
B|------------------------------------------------------------------------------------------------------|
G|14b16-14-12-14-12-------14b16-12----------12b-------14b16-14-12-14-12-------14b16-12------------------|
D|------------------14-12----------14-12-14-----14-12-------------------14-12----------14-12-14-12-14-12|
A|------------------------------------------------------------------------------------------------------|
E|------------------------------------------------------------------------------------------------------|

  Bm                      C
  v play this x8          v x7              Em
E|-----------------------|-----------------|--------------12--------12---------------------------------------|
B|-----------------------|-----------------|15b17~-15pb17----15pb17----15b17~-15pb17-15pb17-15pb17--15pbr17--|
G|14b16-14-12------------|14b16-14-12------|---------------------------------------------------------------12|
D|------------14-12------|------------14-12|-----------------------------------------------------------------|
A|-----------------------|-----------------|-----------------------------------------------------------------|
E|-----------------------|-----------------|-----------------------------------------------------------------|

            D
E|--------|---12----12------------------------------------------------------|
B|--------|15----15----15b17--15pb17-15pb17-15pbr17-------------------------|
G|12-14-12|-----------------------------------------12-14-12----------------|
D|--------|---------------------------------------------------12h14-12----12|
A|--------|------------------------------------------------------------14---|
E|--------|-----------------------------------------------------------------|

  Bm
E|---12----12----12----12-----------14-----------------------------17b19|
B|15----15----15----15-----17b19-17----17b19-17-15-17-15-17-15-17\------|
G|----------------------------------------------------------------------|
D|----------------------------------------------------------------------|
A|----------------------------------------------------------------------|
E|----------------------------------------------------------------------|

  C                                                    Em
E|17-15----15-17br19p15-----17br19p15----17b19~~~--19\|20b22-----------------------20b22-20b22-20b22-20b22|
B|------17--------------17------------17--------------|-------15-15---------------------------------------|
G|----------------------------------------------------|-------------14p12----12-12------------------------|
D|----------------------------------------------------|-------------------14------------------------------|
A|----------------------------------------------------|---------------------------------------------------|
E|----------------------------------------------------|---------------------------------------------------|

  D
E|15b17--15p12----12------------------------------------20b22-20b22-20b22-20b22|
B|-------------15----15p12-15b17-15pb17-15pb17-15pbr17-------------------------|
G|-----------------------------------------------------------------------------|
D|-----------------------------------------------------------------------------|
A|-----------------------------------------------------------------------------|
E|-----------------------------------------------------------------------------|

  Bm
E|17b19--17-15-17-17-15----------------------------14----14----14-14pbr15|
B|----------------------17-17~--17-15----17b19--17----17----17-----------|
G|------------------------------------16---------------------------------|
D|-----------------------------------------------------------------------|
A|-----------------------------------------------------------------------|
E|-----------------------------------------------------------------------|

  C
E|--------------------------------------17b19--19-17-19-17-19-19\----------|
B|17----15-17b19-15-17b20----15-17b20~----------------------------17-15-17\|
G|---16-------------------16-----------------------------------------------|
D|-------------------------------------------------------------------------|
A|-------------------------------------------------------------------------|
E|-------------------------------------------------------------------------|

  Em       D     Bm       C     Em                D                       Bm
E|--------|7+~~~|--------|-----|----0-----0---0--|0---0-0-0-0---0---0-0-5|5-5/7-5~--5/7-5---5/7-5--|
B|--------|-----|--------|8tr10|1/3-------3/5-5/7|7/8-8-7-8-7---5/7-7-8--|----------------8-------8|
G|--------|-----|--------|-----|-----------------|-----------------------|-------------------------|
D|12------|-----|--------|-----|-----------------|-----------------------|-------------------------|
A|---10~~~|-----|4tr5---7|-----|-----------------|-----------------------|-------------------------|
E|--------|-----|--------|-----|-----------------|-----------------------|-------------------------|

  C                                               Em
E|7-5---5-7-5---5-7-5---5-7-5---5-7-5---5-7-5---5|7-9-10-9-7------------10b12|
B|----8-------8-------8-------8-------8-------8--|-----------10-8b-----------|
G|-----------------------------------------------|-----------------9p7-------|
D|-----------------------------------------------|---------------------------|
A|-----------------------------------------------|---------------------------|
E|-----------------------------------------------|---------------------------|

  D                                                  Bm
E|7-7-9-10-9-7--------------------------------0-----|------10----------------------------------------|
B|-------------10--10br-8------8h10p8---------10br12|10b12----10pbr12-10-8-10--10b-10---10b12-10-8-10|
G|------------------------9-7---------9-7-9~--------|------------------------------------------------|
D|--------------------------------------------------|------------------------------------------------|
A|--------------------------------------------------|------------------------------------------------|
E|--------------------------------------------------|------------------------------------------------|

                              C
E|---------------------------|---------------------------------------------------------------------|
B|10b12-10-8-10-10b12-10-8-10|10b12-10-8-10-10b12-10-8-10-10b12-10-8-10-10b12-10-8-10-10b12-10-8-10|
G|---------------------------|---------------------------------------------------------------------|
D|---------------------------|---------------------------------------------------------------------|
A|---------------------------|---------------------------------------------------------------------|
E|---------------------------|---------------------------------------------------------------------|

  Em 
E|--------10-----------------------------------------------------------------------|
B|8-10b12----10pbr12p8-----8h10p8--------------8-10b12-8-10-8--------10h12p10\8h10~|
G|---------------------9-7--------9~~----7---9----------------9-7-9~---------------|
D|-------------------------------------9---9---------------------------------------|
A|---------------------------------------------------------------------------------|
E|---------------------------------------------------------------------------------|

  D                                             Bm
E|------15--12-----------------------15--------|------15--12------------------------15-----------------------|
B|15b17--------15-15p12--------15b17----x------|15b17--------15-15p12---------15b17----15pbr17-12--15p12-----|
G|----------------------14-12-------------x-12~|----------------------14-12~----------------------------14-12|
D|---------------------------------------------|-------------------------------------------------------------|
A|---------------------------------------------|-------------------------------------------------------------|
E|---------------------------------------------|-------------------------------------------------------------|
  
  C
E|--------------------------------------------------------------------------------------------------------|
B|15p12----------15-------15p12----------15-15p12-------15-15-12-------15-12-------15-12-------15-12------|
G|------14-12h14----12-14-------14-12h14----------14-0-----------14-12-------14-12-------14-12-------14-12|
D|--------------------------------------------------------------------------------------------------------|
A|--------------------------------------------------------------------------------------------------------|
E|--------------------------------------------------------------------------------------------------------|
  
  Em
E|--------------------------------------------------------------------------------------------------|
B|15-12---------------------------------------------------------------------------------------------|
G|------14-12-14-12----14br16p12------------------------12--12--12--12--12--12--12--12--12-------12~|
D|------------------14-----------14~-----------9-11-12--12--12--12--12--12--12--12--12--12--14b-----|
A|---------------------------------------10-12------------------------------------------------------|
E|------------------------------------12------------------------------------------------------------|
 
  D                                                      Bm
E|------------------------------------------------------|----------------------------------------------|
B|------------------------------------------------------|----------------------------------------------|
G|------------------12--12--12--12--12--12--12----14-12b|---------------12--12--------14-14br16p12-----|
D|------------9-12--12--12--12--12--12--12--12-14-------|------------11-12--12--11-12--------------14~~|
A|------10-12-------------------------------------------|---10-12/14-----------------------------------|
E|12-12-------------------------------------------------|12--------------------------------------------|
  
  C
E|---------------------------------------------------------------------------------------------|
B|----------------------------------------------------------15-15-15-----15--------------------|
G|---------------------12------------------------12b--14b16-------14pb16-14pbr16-14-14-14--14\-|
D|---------9/11-12--14--------------------12--14-----------------------------------------------|
A|---10-12--------------------10-12-12/14------------------------------------------------------|
E|12-----------------------12------------------------------------------------------------------|
  
  Em                                      D
E|---------------------------------------|-----------------------------------------|
B|0-0-0-0-0-0-0-0---0-0-0-0-0------------|-0-0-0-0-0-0-0---0-0-0-0-----------------|
G|4-4-4-4-4-4-4-2/4-4-4-4-4-4------------|/9-6-6-6-4-4-4---4-4-4-4-----------------|
D|---------------------------------------|-----------------------------------------|
A|---------------------------------------|-----------------------------------------|
E|----------------------------0-3b-0-3b-0|-------------------------0-3b-0-3b-0-3b-0|
  
  Bm                                       C
E|----------------------------------------|--------------------------------------------------------------|
B|0-0-0-0-0-0-0-0-0-0-0-0-0---------------|--0-0-0-0-0-0-0-0----0-0-0-0-0-0-0-0---0--0--0--0--0--0--0--0-|
G|4-4-4-4-4-4-4-4-4-4-4-4-4---------------|4/6-6-6-6-6-6-6-6--6/9-9-9-9-9-9-9-9-9/11-11-11-11-11-11-11-11|
D|----------------------------------5-----|--------------------------------------------------------------|
A|------------------------------5-7---7---|--------------------------------------------------------------|
E|--------------------------5-5---------3b|--------------------------------------------------------------|
  
  Em                                                           D
E|------------12~~~--12-12-x----------------------------------|12~~----12------------------------------------|
B|15b17-15b17----------------15b17-15br17p12-15b17-15-12-15b17|-----15----15p12--------15/17-17~--17-16-17-17|
G|------------------------------------------------------------|-----------------14-12b-----------------------|
D|------------------------------------------------------------|----------------------------------------------|
A|------------------------------------------------------------|----------------------------------------------|
E|------------------------------------------------------------|----------------------------------------------|
  
  Bm                                         C
E|------------------------------------------|----------------------------------------------------------------|
B|17/19-19~--18-19~--18-19~--17/19-19/20-20~|15-17----15-17----15-17----15-17p15----15-17p15----15-17-17-17~~|
G|------------------------------------------|------16-------16-------16----------16----------16--------------|
D|------------------------------------------|----------------------------------------------------------------|
A|------------------------------------------|----------------------------------------------------------------|
E|------------------------------------------|----------------------------------------------------------------|
  
  Em                              D                                
E|0-17b19-15------0-17b19-15-----|0-0-17b19-15------0-0-17b19-----|
B|-----------17~~------------17~~|-------------17~~-----------17~~|
G|-------------------------------|--------------------------------|
D|-------------------------------|--------------------------------|
A|-------------------------------|--------------------------------|
E|-------------------------------|--------------------------------|
  
  Bm
E|0-0-17b19-17-15-17-17b19-17-15-17-17b19-15-------17b19-15-------17b19-15----17b19-15---|
B|-------------------------------------------17-15----------17-15----------17----------17|
G|---------------------------------------------------------------------------------------|
D|---------------------------------------------------------------------------------------|
A|---------------------------------------------------------------------------------------|
E|---------------------------------------------------------------------------------------|
  
  C  
E|17b19-15-------17b19-15----17b19-17pb19-15----17b19-17pb19-15----17b19-17pb19-15----17br19-0-0|
B|---------17-17----------17-----------------17-----------------17-----------------17-----------|
G|----------------------------------------------------------------------------------------------|
D|----------------------------------------------------------------------------------------------|
A|----------------------------------------------------------------------------------------------|
E|----------------------------------------------------------------------------------------------|
  
  Em
E|20b22--------15b17-15-12-----------------------------------------------------------------------------------|
B|------15b17--------------15p12-15-12-15br17p12-15-12---------------------12--------------------------------|
G|-----------------------------------------------------14br16p12----12~-14----12-14--------------------------|
D|---------------------------------------------------------------14-----------------14-12---12-14-12-11-12-12|
A|---------------------------------------------------------------------------------------/14-----------------|
E|-----------------------------------------------------------------------------------------------------------|
  
  D
E|--------------------------------------------------------------------------12---|
B|---------------15---------------------------------------------------------15b17|
G|------12-14b16----14pbr16p12----12-14br16~~--14b16-14br16p12----12-14-12-------|
D|12-14------------------------14------------------------------14----------------|
A|-------------------------------------------------------------------------------|
E|-------------------------------------------------------------------------------|
  
  Bm                                                             C
E|-------------------------------------------12----12-----------|-------------------|
B|15-17-15-17-15-17-17~-17~-17~-17~-17\15----15b17-15b17---15b17|15b17-------15pbr17|
G|----------------------------------------16--------------------|------12~~---------|
D|--------------------------------------------------------------|-------------------|
A|--------------------------------------------------------------|-------------------|
E|--------------------------------------------------------------|-------------------|
  
  Em
E|-----15-15-15-15-15-17-17-17-17-19-19-19\--0-------12-----------------------------|
B|---------------------------------------------0--15----15b17-15b17--------------x-x|
G|------------------------------------------------------------------12-14-12-12~-x-x|
D|-------------------------------------------------------------------------------x-x|
A|----------------------------------------------------------------------------------|
E|12\-------------------------------------------------------------------------------|
  
  D
E|15-15-15-15-15-17-17-17-17-19-19-19\--15b17-15-15b17-15br17p12----|
B|---------------------------------------------------------------x-x|
G|---------------------------------------------------------------x-x|
D|---------------------------------------------------------------x-x|
A|------------------------------------------------------------------|
E|------------------------------------------------------------------|
  
  Bm
E|15-15-15-15-15-17-17-17-17-19-19-19\-----12----12--------------12-15b17-15-15b17-15-15b17-15br17p12|
B|--------------------------------------15----15----15br17p12-15-------------------------------------|
G|---------------------------------------------------------------------------------------------------|
D|---------------------------------------------------------------------------------------------------|
A|---------------------------------------------------------------------------------------------------|
E|---------------------------------------------------------------------------------------------------|
  
  C
E|------------------------------------------------------------|
B|------15-15----15----15----15----15----15----15----15----15\|
G|14/16-------16----16----16----16----16----16----16----16----|
D|------------------------------------------------------------|
A|------------------------------------------------------------|
E|------------------------------------------------------------|
  
  Em            D         Bm
E|-------------|---------|----------------------------------------------|
B|-------------|---------|----------------------------------------------|
G|0-0-2br4-----|---------|------------2-2-2h4~~--2-4-4br6p2-2h4p2-2b4--2|
D|-------------|---------|--------2-5-----------------------------------|
A|-------------|---------|----------------------------------------------|
E|---------2~~~|~~~~~~~~~|2/7-7~----------------------------------------|
  
  C                 Em            D     Bm                       C
E|-----------------|-------------|-----|------------------------|7h9p7h9p7---------------------------------|
B|-----------------|-------------|-----|10-8-10-8------8h10-10-8|------------8------------------------8tr10|
G|4p2---2-2p0------|0-7-6---0-7-6|6-7-6|-------------9----------|--------------9-7h9p7--------7-----7------|
D|-----------------|-------------|-----|------------------------|----------------------9--7/9---7h9--------|
A|------------5\3~~|-------------|-----|------------------------|------------------------------------------|
E|-----------------|-------------|-----|------------------------|------------------------------------------|
  
  Em                                               D
E|------------------------------------------------|--------------------15----------15-12-----------15-12-----|
B|----------------------12h15---------------------|------------15b17~-----15pbr17--------15br17-12------15b17|
G|14pbr16-12h14-14-14~---------14-14-12b----------|14b16-14~~------------------------------------------------|
D|----------------------------------------12----12|----------------------------------------------------------|
A|-------------------------------------------14---|----------------------------------------------------------|
E|------------------------------------------------|----------------------------------------------------------|
  
  Bm
E|------------------------------------------------------------------------------------|
B|15-12--------15p12----------12-15p12----------12-15p12----------12-15p12----------12|
G|------14-12--------14-12-14----------14-12-14----------14-12-14----------14-12-14---|
D|------------------------------------------------------------------------------------|
A|------------------------------------------------------------------------------------|
E|------------------------------------------------------------------------------------|

  C
E|---------------------------------------------------------------------------------------------|
B|15-12----------12-15-12----------12-15-12----------12-15\--15------------------------15------|
G|------14-12-14----------14-12-14----------14-12-14------------14/16-16~--14/16-16-14----16-14|
D|---------------------------------------------------------------------------------------------|
A|---------------------------------------------------------------------------------------------|
E|---------------------------------------------------------------------------------------------|
  
  Em                                                   D
E|12/15-15-15/17-19-14-----------------------12~~--x-x|----------------------------------12~-----------------|
B|-------------------------------15b17-15b17----------|15b17-15br17p12-15b17-15-12-15b17-----15-12-15p12-----|
G|----------------------------------------------------|-------------------------------------------------14-12|
D|---------------------16-16-16-----------------------|------------------------------------------------------|
A|----------------------------------------------------|------------------------------------------------------|
E|----------------------------------------------------|------------------------------------------------------|

  Bm                                               C
E|------12~~--12-11-12-12--12b14-12pb14--12/14-14~|12/14-14~--12/14-14/15-15~-------------------------|
B|15b17-------------------------------------------|----------------------------15-17----15-17----15-17|
G|------------------------------------------------|----------------------------------16-------16------|
D|------------------------------------------------|---------------------------------------------------|
A|------------------------------------------------|---------------------------------------------------|
E|------------------------------------------------|---------------------------------------------------|
  
  Em                                               D        Bm
E|------------------------------------------------|------12|15-------------------------|
B|---15-17p15----15-17p15----15-17-17-17~----15b17|15b17---|---15pbr17--12-15b17-12----|
G|16----------16----------16----------------------|--------|------------------------12~|
D|------------------------------------------------|--------|---------------------------|
A|------------------------------------------------|--------|---------------------------|
E|------------------------------------------------|--------|---------------------------|

  C
E|15----------------------------|
B|---15pbr17--12-15b17-15-------|
G|------------------------14-12~|
D|------------------------------|
A|------------------------------|
E|------------------------------|


| /  slide up
| \  slide down
| h  hammer-on
| p  pull-off
| ~  vibrato
| +  harmonic
| x  Mute note

            
            
Suggest correction
Creating personal tab
Creating personal tab
You can edit any tab online and save it as your Personal.

You can edit, replace or remove any tab part or add personal notes – all changes will be seen only by you.

Personal tabs can be accessed anytime from any device, even offline.
Learn more »
comments
print report bad tab
2 comments total.
+1 reply
swailem95 41 Dec 17, 2016 10:32 AM

Awesome. Appreciate the effort man.

+2 reply
dominik.kolenko 93 Jan 26, 2017 03:53 PM

Have to admit I haven't gone through the whole tab yet, but the first couple of minutes sound proper, way better than other tabs, not to mention this is the only whole tab, so I had to rate it 5*. Must've took you a lot of work, thanks for this :)

guest
You may want to rate the tab now too:
select rating
Wanna post a correction for this tab? Suggest correction