Oops, an error
Loading. Please wait.

Music For My Mother Bass Tab

2,565 views 3 this week
no commentswrite comment
1 2 3 4 5
please rate
add to favorites
launch autoscroll
font size
0
reset
guitar tuner
Autoscroll
slow
fast
+/-
esc
set tempo
stop
Help us to improve Ultimate-Guitar.com Take our survey!
×
Author
Difficulty
novice
Funkadelic - Music For My Mother

Great Grooves in E

Intro
G|------------------------------------------------|
D|--7-5-------------5-----------------------------|
A|------7---5-7-7-----------5-7-------------------|
E|--------7-------------5-7-----3-----------------|

G|------------------------------------------------|
D|----------5------------7-5----------------------|
A|------5-7--------5-7-------7-5-------5----------|
E|--5-7--------5-7---------------7-5-7------------|


Main Riff
G|------------------------------------------------|
D|----------5-------------------------------------|
A|------5-7--------5-7----------------------------|
E|--5-7--------5-7-----3--------------------------|

During the song there are some variations of
the Riff. Don't make a tab of that, feel it!

Greetings from Nils Ritter, Wuerzburg / Germany
Suggest correction
Give kudos to tab author, rate the tab!
1 2 3 4 5
comments
print report bad tab
guest
You may want to rate the tab now too:
select rating
Please do not post tabs as comments. Select "correction" instead!