Oops, an error
Loading. Please wait.

One Nation Under A Groove Bass Tab

12,860 views 24 this week
no commentswrite comment
1 2 3 4 5
x 7
add to favorites
launch autoscroll
font size
0
reset
guitar tuner
Autoscroll
slow
fast
+/-
esc
set tempo
stop
Help us to improve Ultimate-Guitar.com Take our survey!
×
Funkadelic
One Nation Under A Groove

Intro:
G|-----------------|
D|-----------------|
A|-----------------|
E|-5-5-3-3-5-0-0-0-|

Main Riff:
G|---------------------|
D|---------------------|
A|------------2-2-0-0--|
E|--0-0-2-2-3----------|

Chorus:
G|------------------------|
D|------------------------|
A|------------------2-3-5-|
E|-5-5-3-3-5---3-5-5------|

Suggest correction
comments
print report bad tab
guest
You may want to rate the tab now too:
select rating
Wanna post a correction for this tab? Suggest correction