Oops, an error
Loading. Please wait.

What Is Soul bass

13 views 1 this week
no commentswrite comment
1 2 3 4 5
2 more votes to show rating
add to favorites
×
Save as Personal and add changes to this tab that will be seen only by you. Learn more ›
×
You can save this tab as Personal to edit and correct it or add notes. All changes will be seen only by you. Learn more »
launch autoscroll
font size
0
reset
guitar tuner
edit
Autoscroll
slow
fast
+/-
esc
set tempo
stop
Artist: Funkadelic 
Song: What Is Soul 
Tuning - Standard
Time - 4/4 75bpm
tabbed by electricbunny

[Verse]                                                             
G|--------------------------------|--------------------------------|
D|--------------------------------|0-------------------------------|
A|0---2---2---2-------------------|--2-0---------------------------| (x3)
E|--------------------------------|--------------------------------|

G|--------------------------------|----------------0-2-------------|
D|--------------------------------|0-----------0-2-----------------|
A|0---2---2---2---------------2---|--2-0-----0---------------------|
E|--------------------------------|--------------------------------|
 
G|--------------------------------|----------------------0-2-------|
D|--------------------------------|0-------------------0-----------|
A|0---2---2---2-------------------|--2-0-------------2-------------|
E|--------------------------------|--------------------------------|
 
[Chorus]                                                            
G|--------------------------------|--------------------------------|
D|--------------------------------|0-------------------------------|
A|0---2---2---2---------------2---|--2-0-----0-0---0---------------|
E|--------------------------------|--------------------------------|
 
G|--------------------------------|----------------0-2-------------|
D|--------------------------------|0-----------0-2-----------------|
A|0---2---2---2-------------------|--2-0-----0---------------------|
E|--------------------------------|--------------------------------|
 
G|--------------------------------|--------------------------------|
D|--------------------------------|0-------------------------------|
A|0---2---2---2-------------------|--2-0-----------0---0---0---0---|
E|--------------------------------|--------------1-----------------|
 
G|--------------------------------|----------------0-2-------------|
D|--------------------------------|0-----------0-2-----------------|
A|0---2---2---2-------------------|--2-0-----0---------------------|
E|--------------------------------|--------------------------------|
 
G|--------------------------------|--------------------------------|
D|--------------------------------|0-------------------------------|
A|0---2---2---2-------------------|--2-0---------------------------| (x2)
E|--------------------------------|--------------------------------|

G|--------------------------------|--------------0-2---------------|
D|--------------------------------|0-----------0-------------------|
A|0---2---2---2---------------0---|--2-0-----2---------------------|
E|--------------------------------|--------------------------------|
 
G|--------------------------------|------------------------0-2-----|
D|--------------------------------|0-------------------0-2---------|
A|0---2---2---2-------------------|--2-0-------------0-------------|
E|--------------------------------|--------------------------------|
 
G|--------------------------------|--------------------------------|
D|--------------------------------|0-------------------------------|
A|0---2---2---2-------------------|--2-0-----0-----0-------0-------|
E|--------------------------------|------------0-2---2-0-----------|
 
G|--------------------------------|----------------2---------------|
D|--------------------------------|0-------------------------------|
A|0---2---2---2-------------------|--2-0---------------------------| (x2)
E|--------------------------------|--------------------------------|

G|--------------------------------|--------------------------------|
D|--------------------------------|0-------------------------------|
A|0-0-2---2---2---------------0---|--2-0-----0-----0-------0-0-----|
E|--------------------------------|------------0-2---2-0-2---------|
 
G|--------------------------------|----------------------0-2-------|
D|--------------------------------|0-------------------2-----------|
A|0---2---2---2---------------0---|--2-0---------------------------|
E|--------------------------------|--------------------------------|
 
G|--------------------------------|--------------------------------|
D|--------------------------------|0-----------------2-0-----------|
A|0---2---2---2-------------------|--2-0-----------------2-0-------|
E|--------------------------------|--------------------------------|
 
G|--------------------------------|------------------------2-------|
D|--------------------------------|0-------------------0-2---------|
A|0---2---2---2-------------------|--2-0-------------2-------------|
E|--------------------------------|--------------------------------|
 
G|--------------------------------|--------------------------------|
D|--------------------------------|0-------------------------------|
A|0---2---2---2---------------2---|--2-0---------------------------|
E|--------------------------------|--------------------------------|
 
G|--------------------------------|--------------------2-----------|
D|--------------------------------|0-----------------0-------------|
A|0---2---2---2---------------2---|--2-0---------------------------|
E|--------------------------------|--------------------------------|
 
[Verse]                                                             
G|--------------------------------|--------------------------------|
D|--------------------------------|0---------------------------0---|
A|0---2---2---2-------------------|--2-0---------------------2---2-|
E|--------------------------------|--------------------------------|
 
G|--------------------------------|--------------------------------|
D|--------------------------------|0-------------------0---0-------|
A|0---2---2---2-------------------|--2-0---0---------2---2---2-0---|
E|--------------------------------|--------------------------------|
 
G|--------------------------------|------------2-----------2-------|
D|--------------------------------|0-------------------------4-2-0-|
A|0---2---2---2---------------2---|--2-0---------------------------|
E|--------------------------------|--------------------------------|
 
G|--------------------------------|--------------------------------|
D|--------------------------------|0---------------------0---------|
A|0---2---2---2---------------2---|--2-0-------------0-2---2-0---0-|
E|--------------------------------|----------------------------2---|
 
G|--------------------------------|----------------------2---2-----|
D|--------------------------------|0-----------------0-4-------4-0-|
A|0---2---2---2---------------2---|--2-0---------------------------|
E|--------------------------------|--------------------------------|
 
G|--------------------------------|--------------------------------|
D|--------------------------------|0-------------------------------|
A|0---2---2---2---------------2---|--2-0---------------------------|
E|--------------------------------|--------------------------------|
 
G|--------------------------------|--------------------------------|
D|--------------------------------|0-------------------------------|
A|0---2---2---2---------------2---|--2-0-------------------0---0---|
E|--------------------------------|--------------2-0-2-0-2---------|
 
G|--------------------------------|----------------------0-2-------|
D|--------------------------------|0-------------------2-----------|
A|0---2---2---2-------------------|--2-0---------------------------|
E|--------------------------------|--------------------------------|
 
[Chorus]                                                            
G|--------------------------------|--------------------------------|
D|--------------------------------|0-------------------------------|
A|0---2---2---2---------------2-2-|--2-0---------------------------|
E|--------------------------------|--------------------------------|
 
G|--------------------------------|--------------------------------|
D|--------------------------------|0-------------------------------|
A|0---2---2---2---------------2---|--2-0---------------------------| (x2)
E|--------------------------------|--------------------------------|

G|--------------------------------|--------------------------------|
D|--------------------------------|0-------------------0---0-------|
A|0---2---2---2-------------------|--2-0-----------------2---2-0-2-|
E|--------------------------------|--------------------------------|
 
G|--------------------------------|--------------------------------|
D|--------------------------------|0-------------------------------|
A|0---2---2---2---------------2---|--2-0---------------------------|
E|--------------------------------|--------------------------------|
 
G|--------------------------------|--------------------------------|
D|--------------------------------|0-----------------------0-0-----|
A|0---2---2---2-------------------|--2-0---------------0-2-----2---|
E|--------------------------------|--------------------------------|
 
G|--------------------------------|--------------------0-2-2-2-2-2-|
D|--------------------------------|0-------------------------------|
A|0---2---2---2-------------------|--2-0---------------------------|
E|--------------------------------|--------------------------------|
 
G|--------------------------------|--------------------------------|
D|----------------------------2---|0-------------------------------|
A|0---2---2---2-------------------|--2-0---------------------------| (x2)
E|--------------------------------|--------------------------------|

G|--------------------------------|--------------------0-2-2---2---|
D|--------------------------------|0-----------------0-------------|
A|0---2---2---2---------------2---|--2-0---------0-2---------------|
E|--------------------------------|--------------------------------|
 
G|--------------------------------|--------------------------------|
D|--------------------------------|0-------------------0-2-0-------|
A|0---2---2---2---------------2---|--2-0-------------2-------2-0-2-|
E|--------------------------------|--------------------------------|
 
[Verse]                                                             
G|--------------------------------|--------------------------------|
D|--------------------------------|0-------------------------------|
A|0---2---2---2-------------------|--2-0---------------------------| (x3)
E|--------------------------------|--------------------------------|

G|--------------------------------|--------------------------2-1-2-|
D|--------------------------------|0-----------0---0-------0-------|
A|0---2---2---2-------------------|--2-0-------------2---0---------|
E|--------------------------------|--------------------------------|
 
[Chorus]                                                            
G|--------------------------------|--------------------------------|
D|--------------------------------|0-------------------------------|
A|0---2---2---2-------------------|--2-0---------------------------| (x9)
E|--------------------------------|--------------------------------|

G|--------------------------------|--------------------------------|
D|--------------------------------|0-----------0---0-2-0-2-0-------|
A|0---2---2---2-------------------|--2-0---------2-----------2-----|
E|--------------------------------|--------------------------------|
 
G|--------------------------------|
D|--------------------------------|
A|0---2---2---2-------------------|
E|--------------------------------|

            
            
Suggest correction
Creating personal tab
Creating personal tab
You can edit any tab online and save it as your Personal.

You can edit, replace or remove any tab part or add personal notes – all changes will be seen only by you.

Personal tabs can be accessed anytime from any device, even offline.
Learn more »
Give kudos to tab author, rate the tab!
1 2 3 4 5
comments
print report bad tab
guest
You may want to rate the tab now too:
select rating
Wanna post a correction for this tab? Suggest correction