Oops, an error
Loading. Please wait.

Diluvio Tab

31 views 1 this week
no commentswrite comment
1 2 3 4 5
3 more votes to show rating
add to favorites
launch autoscroll
font size
0
reset
how to read this tab
guitar tuner
Autoscroll
slow
fast
+/-
esc
set tempo
stop
Help us to improve Ultimate-Guitar.com Take our survey!
×
Author
Difficulty
intermediate
[Solo]

e|---------------------------------------------------------------|
B|---------------------------------------------------------------|
G|-9---9----------------7-------------------------------------9~-|
D|-------12-10---7-9-10---10-9-7----------------------9-10-12----|
A|-------------------------------10-8-10------8-10-12------------|
E|---------------------------------------------------------------|

e|-----------------------------------------------------------------------|
B|---------------8-------------------------------------------------------|
G|-9---9-12b---10----9-10-9---9------------------------------------------|
D|---12---------------------12-12--9-10-9---9----------------------------|
A|----------------------------------------12-12--8-10-8---8--------------|
E|------------------------------------------------------12-12-10-8-10-8--|


e|-----------------------------------------------------------------------|
B|-13--13-13-13-12-13/15---13-13-12----------12-13-15--13-12-------------|
G|----------------------------------14-12-14-----------------14----------|
D|-----------------------------------------------------------------------|
A|-----------------------------------------------------------------------|
E|-----------------------------------------------------------------------|

e|-13--13-13-13-12-13/15-13-13-12---------15-13-12-15-13-12-15-13-12-15-13-12---------|
B|--------------------------------13--12------------------------------------------13~-|
G|------------------------------------------------------------------------------------|
D|------------------------------------------------------------------------------------|
A|------------------------------------------------------------------------------------|
E|------------------------------------------------------------------------------------|


************************************

| b  Bend
| /  Slide up
| ~  Vibrato

************************************
Suggest correction
Give kudos to tab author, rate the tab!
1 2 3 4 5
comments
print report bad tab
guest
You may want to rate the tab now too:
select rating
Wanna post a correction for this tab? Suggest correction