Oops, an error
Loading. Please wait.

My Condition Tab

219 views 3 this week
no commentswrite comment
1 2 3 4 5
please rate
add to favorites
launch autoscroll
font size
0
reset
how to read this tab
guitar tuner
Autoscroll
slow
fast
+/-
esc
set tempo
stop
Help us to improve Ultimate-Guitar.com Take our survey!
×
Author
Difficulty
novice
Future Idiots - My Condition

Tabbed By: Aaron!

Guitar 1:

Intro/Riff 1

e-------------------------------------------------------------------|
B-------------------------------------------------------------------|
G-------------------------------------------------------------------|
D---2-2-----2-2-----2-2-----2-2-----2-2-----2-2-----2-2-----2-2-----|
A-----------------------2-2-----2-2---------------------0-0-----0-0-|
E-------0-0-----0-0---------------------2-2-----2-2-----------------|


Guitar 2:

e------------------------------|
B------------------------------|
G---9--9-11---9-8-9---99-6-4---|
D---x--x-x----x-x-x---xx-x-x---|
A---7--9-9----7-6-7---77-4-2---|
E------------------------------|


Intro/verse/Riff 1

e-------------------------------------------------------------------|
B-------------------------------------------------------------------|
G-------------------------------------------------------------------|
D---2-2-----2-2-----2-2-----2-2-----2-2-----2-2-----2-2-----2-2-----|
A-----------------------2-2-----2-2---------------------0-0-----0-0-|
E-------0-0-----0-0---------------------2-2-----2-2-----------------|


Chorus:

Guitar 1:

e--I-------------------------------------I-------------|
B--I-------------------------------------I-------------|
G--I----------------------------66666666-I-------------|
D--I-77777777-99999999-22222222-66666666-I-77777777-9~-|
A--I-77777777-99999999-22222222-44444444-I-77777777-9~-|
E--I-55555555-77777777-00000000----------I-55555555-7~-|


Guitar 2:

e---------------------------------------------------------|
B---------------------------------------------------------|
G---------------------------------------------------------|
D---55555555-99999999-1313131313131313-14141414-1313-1111-|
A---55555555-99999999-xxxxxxxxxxxxxxxx-xxxxxxxx-xxxx-x-x--|
E---77777777-77777777-1111111111111111-12121212-1111-9-9--|

guitar 1:

Intro/verse/Riff 1

e-------------------------------------------------------------------|
B-------------------------------------------------------------------|
G-------------------------------------------------------------------|
D---2-2-----2-2-----2-2-----2-2-----2-2-----2-2-----2-2-----2-2-----|
A-----------------------2-2-----2-2---------------------0-0-----0-0-|
E-------0-0-----0-0---------------------2-2-----2-2-----------------|


Guitar 2:

e------------------------------|
B------------------------------|
G---9--9-11---9-8-9---99-6-4---|
D---x--x-x----x-x-x---xx-x-x---|
A---7--9-9----7-6-7---77-4-2---|
E------------------------------|


Intro/verse/Riff 1

e-------------------------------------------------------------------|
B-------------------------------------------------------------------|
G-------------------------------------------------------------------|
D---2-2-----2-2-----2-2-----2-2-----2-2-----2-2-----2-2-----2-2-----|
A-----------------------2-2-----2-2---------------------0-0-----0-0-|
E-------0-0-----0-0---------------------2-2-----2-2-----------------|


Chorus:

Guitar 1:

e--I-------------------------------------I-------------|
B--I-------------------------------------I-------------|
G--I----------------------------66666666-I-------------|
D--I-77777777-99999999-22222222-66666666-I-77777777-9~-|
A--I-77777777-99999999-22222222-44444444-I-77777777-9~-|
E--I-55555555-77777777-00000000----------I-55555555-7~-|


Guitar 2:

e---------------------------------------------------------|
B---------------------------------------------------------|
G---------------------------------------------------------|
D---55555555-99999999-1313131313131313-14141414-1313-1111-|
A---55555555-99999999-xxxxxxxxxxxxxxxx-xxxxxxxx-xxxx-x-x--|
E---77777777-77777777-1111111111111111-12121212-1111-9-9--|


Bridge:

e--------------------------------------------------------------------|
A--------------------------------------------------------------------|
D--------------------------------------------------------------------|
G-------2-2-----2-2-----2-2-----2-2-----2-2-----2-2-----2-2------2-2-|
B---0-0-----0-0-----4-4-----4-4-----2-2-----2-2----------------------|
E---------------------------------------------------0-0------0-0-----|

e------------------------------------------|
A------------------------------------------|
D------------------------------------------|
G---77777777-1111111111111111-99999999-2~--|
B---77777777-1111111111111111-99999999-2~--|
E---55555555-9-9-9-9-9-9-9-9--77777777-0~--|

Chorus:

Guitar 1:

e--I-------------------------------------I-------------|
B--I-------------------------------------I-------------|
G--I----------------------------66666666-I-------------|
D--I-77777777-99999999-22222222-66666666-I-77777777-9~-|
A--I-77777777-99999999-22222222-44444444-I-77777777-9~-|
E--I-55555555-77777777-00000000----------I-55555555-7~-|

Guitar 2:

e---------------------------------------------------------|
B---------------------------------------------------------|
G---------------------------------------------------------|
D---55555555-99999999-1313131313131313-14141414-1313-1111-|
A---55555555-99999999-xxxxxxxxxxxxxxxx-xxxxxxxx-xxxx-x-x--|
E---77777777-77777777-1111111111111111-12121212-1111-9-9--|

Outro

e-------------------------------------------------------------------|
B-------------------------------------------------------------------|
G-------------------------------------------------------------------|
D---2-2-----2-2-----2-2-----2-2-----2-2-----2-2-----2-2-----2-2-----|
A-----------------------2-2-----2-2---------------------0-0-----0-0-|
E-------0-0-----0-0---------------------2-2-----2-2-----------------|
Suggest correction
Give kudos to tab author, rate the tab!
1 2 3 4 5
comments
print report bad tab
guest
You may want to rate the tab now too:
select rating
Wanna post a correction for this tab? Suggest correction