Oops, an error
Loading. Please wait.

Day Glow Fire bass

121 views 9 this week
no commentswrite comment
1 2 3 4 5
2 more votes to show rating
add to favorites
×
Save as Personal and add changes to this tab that will be seen only by you. Learn more ›
×
You can save this tab as Personal to edit and correct it or add notes. All changes will be seen only by you. Learn more »
launch autoscroll
font size
0
reset
guitar tuner
edit
Autoscroll
slow
fast
+/-
esc
set tempo
stop
Author
Difficulty
About this tab version
Full tab of the Far Field track, complete with measure ticker and some tips on how it should be strummed and muted. Standard tuning, felt pick. Was this info helpful? Yes No
The Far Field is real good and this is probably my favorite song off it! I figured this tab out a couple weeks
ago but just got around to posting it now.  Can't speak much to pedals or effects you can achieve a record-
esque sound with here, though it's more or less necessary to play this using a rubber or felt pick playing
with an up-down-up-down strum.

[Intro]
G|---------------|----------------|---------------|----------------|
D|------10---10--|------10---10-\-|-------8---8---|-------8---8--/-|
A|-8---8-------8-|-8---8-------8\-|-6---6-------6-|-6---6-------6/-|  [x2]
E|---------------|----------------|---------------|----------------|

[Verse 1]
--PM-------------------------------------------------------------------------|
G|------------------|------------------|-----------------|-------------------|
D|------------------|------------------|-----------------|------------8------|
A|-8---8-8---8------|-8---8-8---10-8---|-6---6-6---6-----|-6---6-6------8-10-|  [x5]
E|-------------8-10-|----------------8-|-------------6-8-|-------------------|

[Bridge 1]
G|---------------|----------------|---------------|----------------|
D|------10---10--|------10---10-\-|-------8---8---|-------8---8--/-|
A|-8---8-------8-|-8---8-------8\-|-6---6-------6-|-6---6-------6/-|  [x2]
E|---------------|----------------|---------------|----------------|

[Verse 2]
--PM-------------------------------------------------------------------------|
G|------------------|------------------|-----------------|-------------------|
D|------------------|------------------|-----------------|------------8------|
A|-8---8-8---8------|-8---8-8---10-8---|-6---6-6---6-----|-6---6-6------8-10-|  [x5]
E|-------------8-10-|----------------8-|-------------6-8-|-------------------|

[Chorus 1]
G|--------------------|---------------------|----------------------|----------------------|
D|----------------8---|-----------------8---|----------------------|----------------------|
A|-----------8/10---8-|-----------8/10----8-|-6-x-6-/-8-x-8-/-10-x-|-10-/-8-x-8-/-6-o-----|   [x4]
E|-6-6-6-6-6----------|-6-6-6-6-6-----------|----------------------|------------------8-o-|

[Bridge 2]
G|---------------|----------------|---------------|----------------|
D|------10---10--|------10---10-\-|-------8---8---|-------8---8--/-|
A|-8---8-------8-|-8---8-------8\-|-6---6-------6-|-6---6-------6/-|  [x2]
E|---------------|----------------|---------------|----------------|

[Verse 3]
--PM-------------------------------------------------------------------------|
G|------------------|------------------|-----------------|-------------------|
D|------------------|------------------|-----------------|------------8------|
A|-8---8-8---8------|-8---8-8---10-8---|-6---6-6---6-----|-6---6-6------8-10-|  [x5]
E|-------------8-10-|----------------8-|-------------6-8-|-------------------|

[Chorus 2]
G|--------------------|---------------------|----------------------|----------------------|
D|----------------8---|-----------------8---|----------------------|----------------------|
A|-----------8/10---8-|-----------8/10----8-|-6-x-6-/-8-x-8-/-10-x-|-10-/-8-x-8-/-6-o-----|   [x4]
E|-6-6-6-6-6----------|-6-6-6-6-6-----------|----------------------|------------------8-o-|

[Outro]
G|---------------|----------------|---------------|----------------|
D|------10---10--|------10---10-\-|-------8---8---|-------8---8--/-|
A|-8---8-------8-|-8---8-------8\-|-6---6-------6-|-6---6-------6/-|  [x4]
E|---------------|----------------|---------------|----------------|

***********************************
| /   Slide up
| \   Slide down
| x   Ghost note
| PM  Palm Mute
| o   Sustain
***********************************

That's about all.  It looks harder than it is, just strum eighth notes up and down and you'll find each note
falls somewhere inside that strum pattern.  It may take some time to wrap your head around the patterns, but
it's worth it; this song is fantastic and the bassline is an example of simple genius!

Also if that really fast |-8/10- flair in the chorus is a pain then just cutting out the 10 or playing it as
a hammer-on sounds perfectly fine, I just wanted to best reflect the studio performance.
Suggest correction
Creating personal tab
Creating personal tab
You can edit any tab online and save it as your Personal.

You can edit, replace or remove any tab part or add personal notes – all changes will be seen only by you.

Personal tabs can be accessed anytime from any device, even offline.
Learn more »
Give kudos to tab author, rate the tab!
1 2 3 4 5
comments
print report bad tab
guest
You may want to rate the tab now too:
select rating
Wanna post a correction for this tab? Suggest correction