Oops, an error
Loading. Please wait.

Hanging Around Tab

372 views 1 this week
no commentswrite comment
1 2 3 4 5
please rate
add to favorites
launch autoscroll
font size
0
reset
how to read this tab
guitar tuner
Autoscroll
slow
fast
+/-
esc
set tempo
stop
Help us to improve Ultimate-Guitar.com Take our survey!
×
Author
Song: Hanging Around
Artist: Future Kings Of Spain
Album: Future Kings Of Spain
http://www.fkos.com

contact me @: psychedelik.polka@gmail.com

Guitar 1:bridge pick up??, light overdrive for verses and distorsion for chorus i think.
tuning: standard

h:hammer on
p:pull off
/:slide
...pm... : palm muted


Intro (bridge pickup, tremolo, crunch)
e---------------5-2----|-2---------------------|
b-2h3---3-2---2------2-|-2h3-3--3-2-2----2-2h3-|
g-----2----------------|---------------2-------|
d----------------------|-----------------------|
a-----------0----------|-----------------------|
e----------------------|-----------------------|
 back to first bit, then

e--------------------------|
b-2-3----------------------|
g-2-2----------------------|
d--------------------------|
a--------------------------|
e--------------------------|

Verse
e----------------5-2-|-------------------------|
b-2h3-3--3-2----2---2|-2h3-3-3-2-2---2-3-2-----|
g-2---2--2-2-2-------|-2---------2-2-----------|
d-0----------2-------|-0-----------------------|
a------------0-0-----|-------------------------|
e--------------------|-------------------------|

 back to first bit then
e---2-2--------------------|
b-2--2-2-------------------|
g-2------------------------|
d--------------------------|
a--------------------------|
e--------------------------|

Verse 2
e----------------5-2-|-------------------------|
b-2h3-3--3-2----2---2|-2h3-3-3-2-2---2-3-2-----|
g-2---2--2-2-2-------|-2---------2-2-----------|
d-0----------2-------|-0-----------------------|
a------------0-0-----|-------------------------|
e--------------------|-------------------------|

Transition (Wait alone(or along?)...)
e-2--2------2-----2-----2-2---|
b-2---3-----3-----2-----3-3---|
g-2----2----2-----2-----2-2---|
d-0-----x---0-----0-----0-----|
a--------2--------------------|
e-----------------------------|

Back to verse but lightly palm muted

Chorus
e----------------------------|
b----------------------------|
g-4/7---4/7----...-----------|
d-4/7-4-4/7-4--...-------2---|
a-2/5-4-2/5-4--...-------2---|
e-----2-----2--...-------0---|

e---2-5---------------------|
b-2-3-3---------------------|
g-2-2-2---------------------|
d-2-0-0---------------------|
a-0-------------------------|
e---------------------------|

e-2-2-2-2-2-2-2-3-----------|
b---------------------------|
g---------------------------|
d---------------------------|
a---------------------------|
e---------------------------|

Interlude

for this one, i dont know if its the bass or guitar playin
e---------------------------|
b---------------------------|
g---------------------------|
d---------------------------|
a-55555-00000-22----00-222--| X2
e----------------00---------|
............pm...............

Verse

Chorus

Climax Part
e-----------------------------------|
b-----------------------------------|
g-2222222---------999999999---------|
d-2222222-5555555-999999999-5555555-|
a-0000000-5555555-777777777-5555555-|
e---------3333333-----------3333333-|
...............pm...................

Bridge
e---------------------------|
b-7--2----------------------|
g-7--2--5--2----------------|
d-5--0--5--2----------------|
a-------3--0----------------|x4
e---------------------------|

e---------------------------|
b---------------------------|
g---------7-6-6h7--7--------|
d---------7-6----7-7--------|
a-2-2-2---5-4------5--------|
e-0-0-0-2-------------------|
Suggest correction
What's this?
You can suggest a correction to this tab. Community and Mods will review your correction and vote to approve or reject it.
comments
We did not receive enough feedback on this tab! Please rate:
print report bad tab
1 2 3 4 5
guest
You may want to rate the tab now too:
select rating
Please do not post tabs as comments. Select "correction" instead!