Oops, an error
Loading. Please wait.

Whats The Kim Tab

89 views 1 this week
no commentswrite comment
1 2 3 4 5
please rate
add to favorites
launch autoscroll
font size
0
reset
how to read this tab
guitar tuner
Tab Pro tools
  • play this tab
  • loop segment
  • change instrument
  • show fretboard
  • metronome
×
Best way to learn
"Whats The Kim"
Autoscroll
slow
fast
+/-
esc
set tempo
stop
Contributor
BoF
Artist: Future Kings Of Spain
Album: Hanging Around CDS
Tuning: Standard
http://www.fkos.com

contact me @: psychedelik.polka@gmail.com

Guitar 1 (lead): Clean
Guitar 2 (rythm): Reverb, strummed with nails to get this particular "shining sound"

/:slide
h: hammer on
p:pull off
b:bend
r:release
_________________________________________________
Intro

Guitar 1
e|----/7-5--0-2-|----/7-5--2-3-2-3-2-----------|
a|--------------|--------------------3-5-5b6r5-|
g|-2h4----------|-2h4--------------------------|
d|--------------|------------------------------|
a|--------------|------------------------------|
e|--------------|------------------------------|

e|----/7-5--5-7-10-7-5-|----/7-5--0----|
b|---------------------|-------------3-|
g|-2h4-----------------|-2h4-----------|
d|---------------------|---------------|
a|---------------------|---------------|
e|---------------------|---------------|

Guitar 2
e|---------------------|
b|---------------------|
g|-7-7------7-7--------|
d|-7-7-2-2--7-7--------|
a|-5---2-2--5----------|
e|-----0---------------|
______________________________________________
Verse

Guitar 1
e|-2--0---|-2-|---5-2---------------|
b|------3-|---|-3-----3--3-5b6r5-3--|
g|--------|---|---------------------|
d|--------|---|---------------------|
a|--------|---|---------------------|
e|--------|---|---------------------|

e|---5-2-------------|
b|-3-----3-5-3-------|
g|-------------------|
d|-------------------|
a|-------------------|
e|-------------------|
______________________________________________
Back to intro riff

Guitar 1
e|----/7-5--0-2-|----/7-5---------5/7---5--0---|
a|--------------|---------3---3-------7------3-|
g|-2h4----------|-2h4-------4---4--------------|
d|--------------|------------------------------|
a|--------------|------------------------------|
e|--------------|------------------------------|

e|----/7-5--5-7-10-7-5-3p2h3p2---|----/7-5--0----|
b|-----------------------------3-|-------------3-|
g|-2h4---------------------------|-2h4-----------|
d|-------------------------------|---------------|
a|-------------------------------|---------------|
e|-------------------------------|---------------|

Guitar 2 plays same riff as in intro
__________________________________________________
Verse 2

Guitar 1
e|-2-2-2-2-2-2-3-2---------------|
b|--3-3-3-3-3--------------3-----|
g|-------------------4-2-4---4-2-|
d|-------------------------------|
a|-------------------------------|
e|-------------------------------|

e|-----------------------------------------|
b|-----------------------------------------|
g|-----------------------------------------|
d|---7-4---------------------7-4---4-4-4-0-|
a|-5-----5--5-7-5-7b9r7-5--5-----5---------|
e|-----------------------------------------|
__________________________________________________
Bridge
Guitar 1 & 2
e|------------------------------|
b|---------------------10---12--|
g|-7-9-11-12-7-9-11-12-9----11--|
d|-7-9-11-12-7-9-11-12-7----9---|
a|-5-7-9--10-5-7-9--10----------|
e|------------------------------|

then
Guitar 1 (with slide)
e|----------------|
b|-5/7------10/12-|
g|-----6/7--------|
d|----------------|
a|----------------|
e|----------------|

Guitar 2
e|----------------|
b|----------------|
g|-7-6------------|
d|-7-6-9----------|
a|-5-4-9----------|
e|-----7----------|
______________________________________
Outro

Guitar 1
e|-5-----------|
b|-----7/5-7---|
g|-------------|
d|-------------|
a|-------------|
e|-------------|
Guitar 2
e|--------------------|
b|--------------------|
g|--------------------|
d|-4-4-4-4-4-4-4-4-4--|
a|--5-5-5-5-5-5-5-5-5-|
e|--------------------|

end on
e|-------------|
b|-3-----------|
g|-2-----------|
d|-0-----------|
a|-------------|
e|-------------|
comments
We did not receive enough feedback on this tab! Please rate:
print report bad tab
1 2 3 4 5
I want to post or [tab]
guest
You may want to rate the tab now too:
select rating
Please do not post tabs as comments. Select "correction" instead!