Oops, an error
Loading. Please wait.

Let Me Out tab

version 1
version 1

Whole song

Interactive

10,235 views 15 this week
2 commentsread comments
1 2 3 4 5
x 7
add to favorites
×
Save as Personal and add changes to this tab that will be seen only by you. Learn more ›
×
You can save this tab as Personal to edit and correct it or add notes. All changes will be seen only by you. Learn more »
launch autoscroll
font size
0
reset
how to read this tab
guitar tuner
edit
Autoscroll
slow
fast
+/-
esc
set tempo
stop
Author/Artist: Future Leaders of the World
Title: Let Me Out
Album: Level IV
Transcribed by: Chris Hallam
Email: chris3764@hotmail.com

This tab goes out to my band consisting of Brandon, Peaches, Ross and I.

Tuning is dropped D down a half step (Low to highest: Db ab db gb bb eb)

INTRO / 1ST VERSE

------------------------------------------------------------------------------|
------------------------------------------------------------------------------|
------0---------3-----------------------------0-------------------------------|
--------4---------4---5---5-5-5----0--------4---4-----------------------------|
---2---------4--------5---5-5-5----0----5---------5-0-------------------------|
-4---------4----------5---5-5-5----0------------------------------------------|

CHORUS

------------------------------------------------------------------------------|
------------------------------------------------------------------------------|
-4--4—-4-4--------------------------------------------------------------------|
-4--4--4-4--4-5---0---0-0--0-0-----5-5-5-5-4-4-4------------------------------|
-2--2--2-2--4-5---0---0-0--0-0-----5-5-5-5-4-4-4------------------------------|
------------4-5---0---0-0--0-0-----5-5-5-5-4-4-4------------------------------|

The second verse is basically the chorus with a little picking.  Listen to the song to 
it up.

BRIDGE

------------------------------------------------------------------------------|
------------------------------------------------------------------------------|
-4-4-x-x-x-x-x-x--------------------------------------------------------------|
-4-4-x-x-x-x-x-x-4-4-x-x-5-5-x-x-0-0-x-x-x-x-x-x-5-5-x-x-4-4-x-x--------------|
-2-2-x-x-x-x-x-x-4-4-x-x-5-5-x-x-0-0-x-x-x-x-x-x-5-5-x-x-4-4-x-x--------------|
-----------------4-4-x-x-5-5-x-x-0-0-x-x-x-x-x-x-5-5-x-x-4-4-x-x--------------|

There's the basics of the song.  Just listen to it to fill in the details.
Suggest correction
Creating personal tab
Creating personal tab
You can edit any tab online and save it as your Personal.

You can edit, replace or remove any tab part or add personal notes – all changes will be seen only by you.

Personal tabs can be accessed anytime from any device, even offline.
Learn more »
comments
print report bad tab
2 comments total.
0 reply
jables23092 67 Dec 21, 2004 07:00 PM

this tab is way better than 3 stars. good job buddy, i was really close to this while trying to figure it out myself, then i gave up and decided to look here, and this one is almost on the dot. on the second verse though instead of the "picking" he plays something a lot like a DM9 chord down from Bb to Gb to Db all the way down. that probably doesnt make a whole lot of sense to you but just give it a shot and you'll get the idea

0 reply
TomMorelloStrat 10 Jul 15, 2005 08:00 PM

I play it like this......


Interlude
eb---------------------|
Bb---------------------|
Gb---------------------|
Db-9---4--5--0--5--4---|
Ab-9---4--5--0--5--4---|
Db-9---4--5--0--5--4---|


Chorus

eb---------------------------------|
Bb---------------------------------|
Gb---------------------------------|
Db-9-9--4-5--0-0--5-5-5-5-4-4-4-4--|
Ab-9-9--4-5--0-0--5-5-5-5-4-4-4-4--|
Db-9-9--4-5--0-0--5-5-5-5-4-4-4-4--|


Second/Third Verse

eb---------0----------------------------------0---------------3---2---|
Bb---------3-----3s2--------------------------2-----3s0---------3-----|
Gb---------2--2------2----0-------------------3--2-------2------------|
Db-9-9-4-5-0-----------0-----0--------9-9-4-5-0-------------0---------|
Ab-9-9-4-5-0-------------------2s0----9-9-4-5-0-----------------------|
Db-9-9-4-5-0--------------------------9-9-4-5-0-----------------------|

guest
Wanna post a correction for this tab? Suggest correction