Oops, an error
Loading. Please wait.

Let Me Out tab

version 2
version 2

Whole song

Interactive

1,431 views 6 this week
3 commentsread comments
1 2 3 4 5
x 6
add to favorites
×
Save as Personal and add changes to this tab that will be seen only by you. Learn more ›
×
You can save this tab as Personal to edit and correct it or add notes. All changes will be seen only by you. Learn more »
launch autoscroll
font size
0
reset
how to read this tab
guitar tuner
edit
Autoscroll
slow
fast
+/-
esc
set tempo
stop
----------------------------------------------------------------------------
                             Let me out - Future Leaders of the World


Tabbed by:Chris Sylvestre
Email:mr_shitty@hotmail.com
Tuning:Standard

This is how i play it in standdard tuning. I find this more practical because its a
pain to always tune your guitar a different way for every song! Email me if you have
questions or comments.

Intro ( I found some peace.... )

e|---------------------------------------------------------------------------|
B|---------------------------------------------------------------------------|
G|------------------------2-----3-3-3-3----6---------------------------------
D|---------3--2-------------3---4-4-4-4----6---------------------------------|
A|-----1--------------3---------4-4-4-4----4---------------------------------
E|--1---------------1-----------2-2-2-2--------------------------------------|

Chorus ( Let me out, Let me out... )

e|---------------------------------------------------------------------------|
B|---------------------------------------------------------------------------|
G|-----3-3-------6-6-6-------------------------------------------------------|
D|-----3-3--3-4--6-6-6---4------3--------------------------------------------|
A|-----1-1--3-4--4-4-4---4-(4x)-3-(3x)---------------------------------------|
E|----------1-2----------2------1-------------------------------------------
-|


Inerlude ( Now and forever... )

e|----------x----------------------------x-----------------------------------|
B|----------x----------------------------x-----------------------------------|
G|---3-3----x-----------------------6-6--x-----------------------------------|
D|---3-3----x---3-3---xx--4-4--x-x--6-6--x---4-4--x-x--3-3-xx----------------|
A|---1-1----x---3-3---xx--4-4--x-x--4-4--x---4-4--x-x--3-3-xx----------------|
E|----------x---1-1---xx--2-2--x-x-------x---2-2--x-x--1-1-xx----------------|



Playing Order

Intro 4X
Chorus 4X Distortion
Verse 1 ( play same notes as chorus only without distortion )
Chorus 4X
Interlude 4X
Verse 2 ( Same as the first )
Chorus 4X
Ending 4X ( same notes as interlude, play it by ear )

            
            
Suggest correction
Creating personal tab
Creating personal tab
You can edit any tab online and save it as your Personal.

You can edit, replace or remove any tab part or add personal notes – all changes will be seen only by you.

Personal tabs can be accessed anytime from any device, even offline.
Learn more »
comments
print report bad tab
3 comments total.
0 reply
jables23092 77 Jan 06, 2005 07:00 PM

dude, this is kind of crap. you need to get the tuning right first, but keep tryin man

0 reply
TomMorelloStrat 10 Jul 15, 2005 08:00 PM

Play THIS


Interlude
eb---------------------|
Bb---------------------|
Gb---------------------|
Db-9---4--5--0--5--4---|
Ab-9---4--5--0--5--4---|
Db-9---4--5--0--5--4---|


Chorus

eb---------------------------------|
Bb---------------------------------|
Gb---------------------------------|
Db-9-9--4-5--0-0--5-5-5-5-4-4-4-4--|
Ab-9-9--4-5--0-0--5-5-5-5-4-4-4-4--|
Db-9-9--4-5--0-0--5-5-5-5-4-4-4-4--|


Second/Third Verse

eb---------0----------------------------------0---------------3---2---|
Bb---------3-----3s2--------------------------2-----3s0---------3-----|
Gb---------2--2------2----0-------------------3--2-------2------------|
Db-9-9-4-5-0-----------0-----0--------9-9-4-5-0-------------0---------|
Ab-9-9-4-5-0-------------------2s0----9-9-4-5-0-----------------------|
Db-9-9-4-5-0--------------------------9-9-4-5-0-----------------------|

0 reply
Shwax 256 Jul 24, 2014 03:07 PM

Lack of accuracy. Clearly wrong.

guest
Wanna post a correction for this tab? Suggest correction