Oops, an error
Loading. Please wait.

Let Me Out tab

version 3
version 3

Whole song

Interactive

8,631 views 9 this week
5 commentsread comments
1 2 3 4 5
x 8
add to favorites
×
Save as Personal and add changes to this tab that will be seen only by you. Learn more ›
×
You can save this tab as Personal to edit and correct it or add notes. All changes will be seen only by you. Learn more »
launch autoscroll
font size
0
reset
how to read this tab
guitar tuner
edit
Autoscroll
slow
fast
+/-
esc
set tempo
stop
Artist: Future Leaders of the World
Song: Let Me Out
Album: LVL IV

Cool. So this is a good song, and this is how you play it (although the number of strums
arent totally correct).

tuning: Db Ab Db Gb Bb eb

intro/1st verse

eb----------------------------------------|
Bb----------------------------------------|
Gb-----0-------3-------------------0------|
Db-------4-------4--5-55-0-------4---4----|
Ab---2-------4------5-55-0--5~---------5--|
Db-4-------4--------5-55-0----------------|

Chorus

eb---------------------------------|
Bb---------------------------------|
Gb-4-4-----------------------------|
Db-4-4--4-5--0-0--5-5-5-5-4-4-4-4--|
Ab-2-2--4-5--0-0--5-5-5-5-4-4-4-4--|
Db------4-5--0-0--5-5-5-5-4-4-4-4--|

Second/Third Verse

eb---------0----------------------------------0---------------3---2---|
Bb---------3-----3s2--------------------------2-----3s0---------3-----|
Gb-4-4-----2--2------2----0-----------4-4-----3--2-------2------------|
Db-4-4-4-5-0-----------0-----0--------4-4-4-5-0-------------0---------|
Ab-2-2-4-5-0-------------------2s0----2-2-4-5-0-----------------------|
Db-----4-5-0------------------------------4-5-0-----------------------|

interlude: there is a wierd strum pattern here with a lot of strange harmonics, so i'll 
give you the chords in order that they appear

eb--------------------|
Bb--------------------|
Gb-4------------------|
Db-4--4--5--0--5--4---|
Ab-2--4--5--0--5--4---|
Db----4--5--0--5--4---|

the end is the same chord progression, just to let you know


Well thats it, Hope you find this usefull and have a good time playing this song!

            
            
Suggest correction
Creating personal tab
Creating personal tab
You can edit any tab online and save it as your Personal.

You can edit, replace or remove any tab part or add personal notes – all changes will be seen only by you.

Personal tabs can be accessed anytime from any device, even offline.
Learn more »
comments
print report bad tab
5 comments total. Showing first comments.
0 reply
grunge4life 20 Feb 24, 2005 07:00 PM

this song is badass. good tab, its right on. now someone needs to tab out sued by future leaders.

0 reply
SKATER~DUDE431 80 Mar 14, 2005 07:00 PM

^^ yeah we need some more future leaders of the world tabs! maybe i'll try out n tab 'em...

+1 reply
TomMorelloStrat 10 Jul 15, 2005 08:00 PM

Hey man tab is GREAT but i found it easierto play some parts like this, and here they are!!!


Interlude
eb---------------------|
Bb---------------------|
Gb---------------------|
Db-9---4--5--0--5--4---|
Ab-9---4--5--0--5--4---|
Db-9---4--5--0--5--4---|


Chorus

eb---------------------------------|
Bb---------------------------------|
Gb---------------------------------|
Db-9-9--4-5--0-0--5-5-5-5-4-4-4-4--|
Ab-9-9--4-5--0-0--5-5-5-5-4-4-4-4--|
Db-9-9--4-5--0-0--5-5-5-5-4-4-4-4--|


Second/Third Verse

eb---------0----------------------------------0---------------3---2---|
Bb---------3-----3s2--------------------------2-----3s0---------3-----|
Gb---------2--2------2----0-------------------3--2-------2------------|
Db-9-9-4-5-0-----------0-----0--------9-9-4-5-0-------------0---------|
Ab-9-9-4-5-0-------------------2s0----9-9-4-5-0-----------------------|
Db-9-9-4-5-0--------------------------9-9-4-5-0-----------------------|

guest
You may want to rate the tab now too:
select rating
Wanna post a correction for this tab? Suggest correction