Oops, an error
Loading. Please wait.

What Child Is This Chords

28 views 12 this week
no commentswrite comment
1 2 3 4 5
2 more votes to show rating
add to favorites
launch autoscroll
font size
0
reset
transpose
0
reset
simplify chords
display chords
guitar tuner
Autoscroll
slow
fast
+/-
esc
set tempo
stop
Help us to improve Ultimate-Guitar.com Take our survey!
×
Author
Difficulty
What Child is This
Future of Forestry
Advent Christmas EP

[Intro]
Fm  Ab  Eb    Cm   
Fm  Db  C/Eb C/D
Fm  Ab  Eb    Cm
Fm  Db  C


[Verse 1]
      Fm       Ab        Eb      Cm      Fm    Db         C 
What Child is this who, laid to rest on Mary's lap is sleeping? 
     Fm      Ab        Eb      Cm            Fm        C/E       Fm
Whom Angels greet with anthems sweet, while shepherds watch are keeping? 


[Interlude]
Fm  Ab  Eb    Cm   
Fm  Db  C
Fm  Ab  Eb    Cm
Fm  C/E  Fm


[Verse 1]
       Fm       Ab        Eb      Cm      Fm    Db         C 
What Child is this who, laid to rest on Mary's lap is sleeping? 
     Fm       Ab        Eb      Cm           Fm        C/E       Fm
Whom Angels greet with anthems sweet, while shepherds watch are keeping? 


[Chorus]
Cm     Ab        Eb        Cm         Fm      Db         Cm
This, this is Christ the King, Whom shepherds guard and Angels sing; 
Cm     Ab        Eb        Cm        Fm        C/E     Fm
Haste, haste, to bring Him laud, The Babe, the Son of Mary.


[Interlude 2]
Fm  Ab  Eb    Cm   
Fm  Db  C/Eb C/D


[Verse 2]
      Fm       Ab        Eb      Cm          Fm      Db          C 
So bring Him incense, gold and myrrh, come peasant, king to own Him; 
     Fm      Ab      Eb      Cm           Fm    C/E     Fm 
The King of kings salvation brings, Let loving hearts enthrone Him. 


[Chorus]
Cm     Ab        Eb        Cm         Fm      Db         Cm
This, this is Christ the King, Whom shepherds guard and Angels sing; 
Cm     Ab        Eb        Cm        Fm        C/E     Fm
Haste, haste, to bring Him laud, The Babe, the Son of Mary.


e|--11------------------------|--8---------------------------|--8----------------------------|
b|-----9-8-9-8---8-9-8---8-9--|----9-8-9-8------8---------8--|----9-8-9-8------------8----8--|
G|-------------8-------8------|------------8-10---10-8-10----|------------10-10-9-10---10----|
D|----------------------------|------------------------------|-------------------------------|
A|----------------------------|------------------------------|-------------------------------|
E|----------------------------|------------------------------|-------------------------------|

e|--16-15--------------------------------|--16-15--------------------------------|
b|--------16-----------------------------|--------16-----------------------------|
G|-----------15-13-12-12-13-15-13-12-----|-----------15-13-12-12-13-15-13-12-----|
D|-----------------------------------13--|-----------------------------------13--|
A|---------------------------------------|---------------------------------------|
E|---------------------------------------|---------------------------------------|

e|---------------------------------------|-----------------12-13-----------------|
b|-----------13-15-16----------13-15-16--|-----------13-15-----------------------|
G|--12-13-15----------12-13-15-----------|--12-13-15-----------------------------|
D|---------------------------------------|---------------------------------------|
A|---------------------------------------|---------------------------------------|
E|---------------------------------------|---------------------------------------|


[Interlude]
Fm  Ab  Eb    Cm   
Fm  Db  C/Eb  C/D
Fm  Ab  Eb    Cm
Fm  C/E  Fm


[Chorus]
Cm     Ab        Eb        Cm         Fm      Db         Cm
This, this is Christ the King, Whom shepherds guard and Angels sing; 
Cm     Ab        Eb        Cm        Fm        C/E     Fm
Haste, haste, to bring Him laud, The Babe, the Son of Mary. {Drop}


[Verse 2]
      Fm       Ab        Eb      Cm          Fm      Db          C 
So bring Him incense, gold and myrrh, come peasant, king to own Him; 
     Fm      Ab      Eb      Cm           Fm    C/E     Fm 
The King of kings salvation brings, Let loving hearts enthrone Him. 
Suggest correction
Give kudos to tab author, rate the tab!
1 2 3 4 5
comments
print report bad tab
guest
You may want to rate the tab now too:
select rating
Wanna post a correction for this tab? Suggest correction