Oops, an error
Loading. Please wait.

I Have Four Names Bass Tab

105 views 1 this week
1 commentread comment
1 2 3 4 5
2 more votes to show rating
add to favorites
launch autoscroll
font size
0
reset
guitar tuner
Autoscroll
slow
fast
+/-
esc
set tempo
stop
Help us to improve Ultimate-Guitar.com Take our survey!
×
Author
Difficulty
novice
-----------------------------------------------------------------------------
                    I HAVE FOUR NAMES - Future of the Left
-----------------------------------------------------------------------------
Tabbed by: Haanz
Email: savehaanzfromwork@gmail.com

Tuning: Standard


This one is stupidly easy, and it's just one riff repeated the whole way through; sounds 
great though.

G|-----------------------|
D|-----------------------|
A|---5-------10-12-10----|
E|-0x-12-0-0x---------12-|
Suggest correction
Give kudos to tab author, rate the tab!
1 2 3 4 5
comments
print report bad tab
1 comment total.
0 reply
JAStewart 7,240 Aug 09, 2014 05:54 AM

I think that it actually goes like this:


G----------------------------
D----------------------------
A---666-777-----10-12-10-----
E-0---------0-0----------12--

guest
You may want to rate the tab now too:
select rating
Wanna post a correction for this tab? Suggest correction