Oops, an error
Loading. Please wait.

Stand By Your Manatee intro tab

1,183 views 1 this week
4 commentsread comments
1 2 3 4 5
x 3
add to favorites
×
Save as Personal and add changes to this tab that will be seen only by you. Learn more ›
×
You can save this tab as Personal to edit and correct it or add notes. All changes will be seen only by you. Learn more »
launch autoscroll
font size
0
reset
how to read this tab
guitar tuner
edit
Autoscroll
slow
fast
+/-
esc
set tempo
stop
Author
Difficulty
-------------------------------------------------------------------------------
                  STAND BY YOUR MANATEE - Future of the Left
-------------------------------------------------------------------------------
Tabbed by: Haanz
Email: savehaanzfromwork@gmail.com

Tuning: Standard


Falco's catchiest riff since Mi-Oh-Mai in the mclusky days. Easy and fun intro to play.


e|-------------------------|
B|-----xx--xx--x-----------|
G|-----xx55xx--x-----------|
D|---55xx55xx55x3-4--------| (x8)
A|---55xx33xx55x3-4--------|
E|---33xx--xx33x1-2--------|

            
            
Suggest correction
Creating personal tab
Creating personal tab
You can edit any tab online and save it as your Personal.

You can edit, replace or remove any tab part or add personal notes – all changes will be seen only by you.

Personal tabs can be accessed anytime from any device, even offline.
Learn more »
Give kudos to tab author, rate the tab!
1 2 3 4 5
comments
print report bad tab
4 comments total. Showing first comments.
+2 reply
Warm-And-Fuzzy 91 Nov 17, 2010 05:36 PM

The second chord should be a Bb chord not a C chord. (6th fret of the E string

0 reply
Haanz 132 Nov 30, 2012 10:04 AM

Warm and fuzzy has it totally right, can't believe I missed that. Cheers, buddy!

0 reply
arjay227721 10 Apr 16, 2017 11:18 AM

e|-------------------------|
B|-----xx--xx--x-----------|
G|-----xx33xx--x-----------|
D|---55xx33xx55x3-4--------|
A|---55xx11xx55x3-4--------|
E|---33xx--xx33x1-2--------|

guest
You may want to rate the tab now too:
select rating
Wanna post a correction for this tab? Suggest correction