Oops, an error
Loading. Please wait.

Back To The Future Bass Tab

version 1
version 1

Whole song

  • Bass tab for Back To The Future in C#.

Interactive

7 views 1 this week
no commentswrite comment
1 2 3 4 5
3 more votes to show rating
add to favorites
launch autoscroll
font size
0
reset
guitar tuner
Autoscroll
slow
fast
+/-
esc
set tempo
stop
Help us to improve Ultimate-Guitar.com Take our survey!
×
Author
Difficulty
Tuning
novice
C# G# E B F# C#
About this tab version
Bass tab for Back To The Future in C#. Was this info helpful? Yes No
[Intro]
 E|---------------------------------|---------------------------------|
 B|---------------------------------|---------------------------------|
F#|---------------------------------|---------------------------------|
C#|---------------------------------|---------------------------------|

 E|---------------------------------|---------------------------------|
 B|---------2---------------2-------|---------------------------------|
F#|---------------------------------|---------------------------------|
C#|-0---0-------0---------0-----0---|-3---3-----------5---5---------5-|

[Verse]
 E|---------------------------------|---------------------------------|
 B|---------2---------------2-------|---------------------------------|
F#|---------------------------------|---------------------------------|
C#|-0---0-------0---------0-----0---|-3---3-----------5---5---------5-|

 E|---------------------------------|---------------------------------|
 B|---------------------------------|---------------------------------|
F#|---------------------------------|---------------------------------|
C#|-7---7---------5-7-----5-7-------|-7---7-----------7---7---10--10--|

 E|---------------------------------|---------------------------------|
 B|---------2---------------2-------|---------------------------------|
F#|---------------------------------|---------------------------------|
C#|-0---0-------0---------0-----0---|-3---3-----------5---5---------5-|

 E|---------------------------------|---------------------------------|
 B|---------2---------------2-------|---------------------------------|
F#|---------------------------------|---------------------------------|
C#|-0---0-------0---------0-----0---|-3---3-----------5---5---------5-|

[Verse]
 E|---------------------------------|---------------------------------|
 B|---------2---------------2-------|---------------------------------|
F#|---------------------------------|---------------------------------|
C#|-0---0-------0---------0-----0---|-3---3-----------5---5---------5-|

 E|---------------------------------|---------------------------------|
 B|---------------------------------|---------------------------------|
F#|---------------------------------|---------------------------------|
C#|-7---7---------5-7-----5-7-------|-7---7-----------7---7---10--10--|

 E|---------------------------------|---------------------------------|
 B|---------2---------------2-------|---------------------------------|
F#|---------------------------------|---------------------------------|
C#|-0---0-------0---------0-----0---|-3---3-----------5---5---------5-|

 E|---------------------------------|---------------------------------|
 B|---------2---------------2-------|---------------------------------|
F#|---------------------------------|---------------------------------|
C#|-0---0-------0---------0-----0---|-3---3-----------5---5---------5-|

[Verse]
 E|---------------------------------|---------------------------------|
 B|---------2---------------2-------|---------------------------------|
F#|---------------------------------|---------------------------------|
C#|-0---0-------0---------0-----0---|-3---3-----------5---5---------5-|

 E|---------------------------------|---------------------------------|
 B|---------------------------------|---------------------------------|
F#|---------------------------------|---------------------------------|
C#|-7---7---------5-7-----5-7-------|-7---7-----------7---7---10--10--|

 E|---------------------------------|---------------------------------|
 B|---------2---------------2-------|---------------------------------|
F#|---------------------------------|---------------------------------|
C#|-0---0-------0---------0-----0---|-3---3-----------5---5---------5-|

 E|---------------------------------|---------------------------------|
 B|---------2---------------2-------|---------------------------------|
F#|---------------------------------|---------------------------------|
C#|-0---0-------0---------0-----0---|-3---3-----------5---5---------5-|

[Verse]
 E|---------------------------------|---------------------------------|
 B|---------2---------------2-------|---------------------------------|
F#|---------------------------------|---------------------------------|
C#|-0---0-------0---------0-----0---|-3---3-----------5---5---------5-|

 E|---------------------------------|---------------------------------|
 B|---------------------------------|---------------------------------|
F#|---------------------------------|---------------------------------|
C#|-7---7---------5-7-----5-7-------|-7---7-----------7---7---10--10--|

 E|---------------------------------|---------------------------------|
 B|---------2---------------2-------|---------------------------------|
F#|---------------------------------|---------------------------------|
C#|-0---0-------0---------0-----0---|-3---3-----------5---5---------5-|

 E|---------------------------------|---------------------------------|
 B|---------2---------------2-------|---------------------------------|
F#|---------------------------------|---------------------------------|
C#|-0---0-------0---------0-----0---|-3---3-----------5---5---------5-|

[Verse]
 E|---------------------------------|---------------------------------|
 B|---------2---------------2-------|---------------------------------|
F#|---------------------------------|---------------------------------|
C#|-0---0-------0---------0-----0---|-3---3-----------5---5---------5-|

 E|---------------------------------|---------------------------------|
 B|---------------------------------|---------------------------------|
F#|---------------------------------|---------------------------------|
C#|-7---7---------5-7-----5-7-------|-7---7-----------7---7---10--10--|

 E|---------------------------------|---------------------------------|
 B|---------2---------------2-------|---------------------------------|
F#|---------------------------------|---------------------------------|
C#|-0---0-------0---------0-----0---|-3---3-----------5---5---------5-|

 E|---------------------------------|---------------------------------|
 B|---------2---------------2-------|---------------------------------|
F#|---------------------------------|---------------------------------|
C#|-0---0-------0---------0-----0---|-3---3-----------5---5---------5-|

[Verse]
 E|---------------------------------|---------------------------------|
 B|---------2---------------2-------|---------------------------------|
F#|---------------------------------|---------------------------------|
C#|-0---0-------0---------0-----0---|-3---3-----------5---5---------5-|

 E|---------------------------------|---------------------------------|
 B|---------------------------------|---------------------------------|
F#|---------------------------------|---------------------------------|
C#|-7---7---------5-7-----5-7-------|-7---7-----------7---7---10--10--|

 E|---------------------------------|---------------------------------|
 B|---------2---------------2-------|---------------------------------|
F#|---------------------------------|---------------------------------|
C#|-0---0-------0---------0-----0---|-3---3-----------5---5---------5-|

 E|---------------------------------|---------------------------------|
 B|---------2---------------2-------|---------------------------------|
F#|---------------------------------|---------------------------------|
C#|-0---0-------0---------0-----0---|-3---3-----------5---5---------5-|

[Verse]
 E|---------------------------------|---------------------------------|
 B|---------2---------------2-------|---------------------------------|
F#|---------------------------------|---------------------------------|
C#|-0---0-------0---------0-----0---|-3---3-----------5---5---------5-|

 E|---------------------------------|---------------------------------|
 B|---------------------------------|---------------------------------|
F#|---------------------------------|---------------------------------|
C#|-7---7---------5-7-----5-7-------|-7---7-----------7---7---10--10--|

 E|---------------------------------|---------------------------------|
 B|---------2---------------2-------|---------------------------------|
F#|---------------------------------|---------------------------------|
C#|-0---0-------0---------0-----0---|-3---3-----------5---5---------5-|

 E|---------------------------------|---------------------------------|
 B|---------2---------------2-------|---------------------------------|
F#|---------------------------------|---------------------------------|
C#|-0---0-------0---------0-----0---|-3---3-----------5---5---------5-|
Suggest correction
Give kudos to tab author, rate the tab!
1 2 3 4 5
comments
print report bad tab
guest
You may want to rate the tab now too:
select rating
Wanna post a correction for this tab? Suggest correction