Oops, an error
Loading. Please wait.

Checking Out Bass Tab

version 1
version 1

Whole song

  • Checking Out by FSR bass tab.

Interactive

1 view 1 this week
no commentswrite comment
1 2 3 4 5
3 more votes to show rating
add to favorites
launch autoscroll
font size
0
reset
guitar tuner
Autoscroll
slow
fast
+/-
esc
set tempo
stop
Help us to improve Ultimate-Guitar.com Take our survey!
×
Author
Difficulty
novice
About this tab version
Checking Out by FSR bass tab. Was this info helpful? Yes No
[Intro]
G|-----------------|-----------------|-----------------|-----------------|
D|-----------------|-----------------|-----------------|-----------------|
A|-----------------|-----------------|-----------------|-----------------|
E|-----------------|-----------------|-----------------|-----------------|

[Verse]
G|-----------------|-----------------|-----------------|-----------------|
D|-----------------|-----------------|-----------------|-----------------|
A|-----------------|-------------5---|-----------------|-------------3-5-|
E|-3-3-------------|-3-3-----------3-|-8-8-------------|-8-8-------------|

G|-----------------|-----------------|-----------------|-----------------|
D|-----------------|-----------------|-----------------|-----------------|
A|-----------------|-------------5---|-----------------|-------------3-5-|
E|-3-3-------------|-3-3-----------3-|-8-8-------------|-8-8-------------|

G|-----------------|-----------------|-----------------|-----------------|
D|-----------------|-----------------|-----------------|-----------------|
A|-----------------|-------------5---|-----------------|-------------3-5-|
E|-3-3-------------|-3-3-----------3-|-8-8-------------|-8-8-------------|

G|-----------------|-----------------|-----------------|-----------------|
D|-----------------|-----------------|-----------------|-----------------|
A|-----------------|-------------5---|-----------------|-------------3-5-|
E|-3-3-------------|-3-3-----------3-|-8-8-------------|-8-8-------------|

[Verse]
G|-----------------|-----------------|-----------------|-----------------|
D|-----------------|-----------------|-----------------|-----------------|
A|-----------------|-------------5---|-----------------|-------------3-5-|
E|-3-3-------------|-3-3-----------3-|-8-8-------------|-8-8-------------|

G|-----------------|-----------------|-----------------|-----------------|
D|-----------------|-----------------|-----------------|-----------------|
A|-----------------|-------------5---|-----------------|-------------3-5-|
E|-3-3-------------|-3-3-----------3-|-8-8-------------|-8-8-------------|

G|-----------------|-----------------|-----------------|-----------------|
D|-----------------|-----------------|-----------------|-----------------|
A|-----------------|-------------5---|-----------------|-------------3-5-|
E|-3-3-------------|-3-3-----------3-|-8-8-------------|-8-8-------------|

G|-----------------|-----------------|-----------------|-----------------|
D|-----------------|-----------------|-----------------|-----------------|
A|-----------------|-------------5---|-----------------|-------------3-5-|
E|-3-3-------------|-3-3-----------3-|-8-8-------------|-8-8-------------|

[Verse]
G|-----------------|-----------------|-----------------|-----------------|
D|-----------------|-----------------|-----------------|-----------------|
A|-----------------|-------------5---|-----------------|-------------3-5-|
E|-3-3-------------|-3-3-----------3-|-8-8-------------|-8-8-------------|

G|-----------------|-----------------|-----------------|-----------------|
D|-----------------|-----------------|-----------------|-----------------|
A|-----------------|-------------5---|-----------------|-------------3-5-|
E|-3-3-------------|-3-3-----------3-|-8-8-------------|-8-8-------------|

G|-----------------|-----------------|-----------------|-----------------|
D|-----------------|-----------------|-----------------|-----------------|
A|-----------------|-------------5---|-----------------|-------------3-5-|
E|-3-3-------------|-3-3-----------3-|-8-8-------------|-8-8-------------|

G|-----------------|-----------------|-----------------|-----------------|
D|-----------------|-----------------|-----------------|-----------------|
A|-----------------|-------------5---|-----------------|-------------3-5-|
E|-3-3-------------|-3-3-----------3-|-8-8-------------|-8-8-------------|

[Verse]
G|-----------------|-----------------|-----------------|-----------------|
D|-----------------|-----------------|-----------------|-----------------|
A|-----------------|-------------5---|-----------------|-------------3-5-|
E|-3-3-------------|-3-3-----------3-|-8-8-------------|-8-8-------------|

G|-----------------|-----------------|-----------------|-----------------|
D|-----------------|-----------------|-----------------|-----------------|
A|-----------------|-------------5---|-----------------|-------------3-5-|
E|-3-3-------------|-3-3-----------3-|-8-8-------------|-8-8-------------|

G|-----------------|-----------------|-----------------|-----------------|
D|-----------------|-----------------|-----------------|-----------------|
A|-----------------|-------------5---|-----------------|-------------3-5-|
E|-3-3-------------|-3-3-----------3-|-8-8-------------|-8-8-------------|

G|-----------------|-----------------|-----------------|-----------------|
D|-----------------|-----------------|-----------------|-----------------|
A|-----------------|-------------5---|-----------------|-------------3-5-|
E|-3-3-------------|-3-3-----------3-|-8-8-------------|-8-8-------------|

[Verse]
G|-----------------|-----------------|-----------------|-----------------|
D|-----------------|-----------------|-----------------|-----------------|
A|-----------------|-------------5---|-----------------|-------------3-5-|
E|-3-3-------------|-3-3-----------3-|-8-8-------------|-8-8-------------|

G|-----------------|-----------------|-----------------|-----------------|
D|-----------------|-----------------|-----------------|-----------------|
A|-----------------|-------------5---|-----------------|-------------3-5-|
E|-3-3-------------|-3-3-----------3-|-8-8-------------|-8-8-------------|

G|-----------------|-----------------|-----------------|-----------------|
D|-----------------|-----------------|-----------------|-----------------|
A|-----------------|-------------5---|-----------------|-------------3-5-|
E|-3-3-------------|-3-3-----------3-|-8-8-------------|-8-8-------------|

G|-----------------|-----------------|-----------------|-----------------|
D|-----------------|-----------------|-----------------|-----------------|
A|-----------------|-------------5---|-----------------|-------------3-5-|
E|-3-3-------------|-3-3-----------3-|-8-8-------------|-8-8-------------|

[Verse]
G|-----------------|-----------------|-----------------|-----------------|
D|-----------------|-----------------|-----------------|-----------------|
A|-----------------|-------------5---|-----------------|-------------3-5-|
E|-3-3-------------|-3-3-----------3-|-8-8-------------|-8-8-------------|

G|-----------------|-----------------|-----------------|-----------------|
D|-----------------|-----------------|-----------------|-----------------|
A|-----------------|-------------5---|-----------------|-------------3-5-|
E|-3-3-------------|-3-3-----------3-|-8-8-------------|-8-8-------------|

G|-----------------|-----------------|-----------------|-----------------|
D|-----------------|-----------------|-----------------|-----------------|
A|-----------------|-------------5---|-----------------|-------------3-5-|
E|-3-3-------------|-3-3-----------3-|-8-8-------------|-8-8-------------|

G|-----------------|-----------------|-----------------|-----------------|
D|-----------------|-----------------|-----------------|-----------------|
A|-----------------|-------------5---|-----------------|-------------3-5-|
E|-3-3-------------|-3-3-----------3-|-8-8-------------|-8-8-------------|

[Verse]
G|-----------------|-----------------|-----------------|-----------------|
D|-----------------|-----------------|-----------------|-----------------|
A|-----------------|-------------5---|-----------------|-------------3-5-|
E|-3-3-------------|-3-3-----------3-|-8-8-------------|-8-8-------------|

G|-----------------|-----------------|-----------------|-----------------|
D|-----------------|-----------------|-----------------|-----------------|
A|-----------------|-------------5---|-----------------|-------------3-5-|
E|-3-3-------------|-3-3-----------3-|-8-8-------------|-8-8-------------|

G|-----------------|-----------------|-----------------|-----------------|
D|-----------------|-----------------|-----------------|-----------------|
A|-----------------|-------------5---|-----------------|-------------3-5-|
E|-3-3-------------|-3-3-----------3-|-8-8-------------|-8-8-------------|

G|-----------------|-----------------|-----------------|-----------------|
D|-----------------|-----------------|-----------------|-----------------|
A|-----------------|-------------5---|-----------------|-------------3-5-|
E|-3-3-------------|-3-3-----------3-|-8-8-------------|-8-8-------------|

[Verse]
G|-----------------|-----------------|-----------------|-----------------|
D|-----------------|-----------------|-----------------|-----------------|
A|-----------------|-------------5---|-----------------|-------------3-5-|
E|-3-3-------------|-3-3-----------3-|-8-8-------------|-8-8-------------|

G|-----------------|-----------------|-----------------|-----------------|
D|-----------------|-----------------|-----------------|-----------------|
A|-----------------|-------------5---|-----------------|-------------3-5-|
E|-3-3-------------|-3-3-----------3-|-8-8-------------|-8-8-------------|

G|-----------------|-----------------|-----------------|-----------------|
D|-----------------|-----------------|-----------------|-----------------|
A|-----------------|-------------5---|-----------------|-------------3-5-|
E|-3-3-------------|-3-3-----------3-|-8-8-------------|-8-8-------------|

G|-----------------|-----------------|-----------------|-----------------|
D|-----------------|-----------------|-----------------|-----------------|
A|-----------------|-------------5---|-----------------|-------------3-5-|
E|-3-3-------------|-3-3-----------3-|-8-8-------------|-8-8-------------|

[Verse]
G|-----------------|-----------------|-----------------|-----------------|
D|-----------------|-----------------|-----------------|-----------------|
A|-----------------|-------------5---|-----------------|-------------3-5-|
E|-3-3-------------|-3-3-----------3-|-8-8-------------|-8-8-------------|

G|-----------------|-----------------|-----------------|-----------------|
D|-----------------|-----------------|-----------------|-----------------|
A|-----------------|-------------5---|-----------------|-------------3-5-|
E|-3-3-------------|-3-3-----------3-|-8-8-------------|-8-8-------------|

G|-----------------|-----------------|-----------------|-----------------|
D|-----------------|-----------------|-----------------|-----------------|
A|-----------------|-------------5---|-----------------|-------------3-5-|
E|-3-3-------------|-3-3-----------3-|-8-8-------------|-8-8-------------|

G|-----------------|-----------------|-----------------|-----------------|
D|-----------------|-----------------|-----------------|-----------------|
A|-----------------|-------------5---|-----------------|-------------3-5-|
E|-3-3-------------|-3-3-----------3-|-8-8-------------|-8-8-------------|

[Outro] (Fade Out)
G|-----------------|-----------------|-----------------|-----------------|
D|-----------------|-----------------|-----------------|-----------------|
A|-----------------|-------------5---|-----------------|-------------3-5-|
E|-3-3-------------|-3-3-----------3-|-8-8-------------|-8-8-------------|

G|-----------------|-----------------|-----------------|-----------------|
D|-----------------|-----------------|-----------------|-----------------|
A|-----------------|-------------5---|-----------------|-------------3-5-|
E|-3-3-------------|-3-3-----------3-|-8-8-------------|-8-8-------------|
Suggest correction
Give kudos to tab author, rate the tab!
1 2 3 4 5
comments
print report bad tab
guest
You may want to rate the tab now too:
select rating
Wanna post a correction for this tab? Suggest correction