Oops, an error
Loading. Please wait.

Dishwater Bass Tab

version 1
version 1

Whole song

  • Dishwater bass tab first version.

Interactive

4 views 1 this week
no commentswrite comment
1 2 3 4 5
3 more votes to show rating
add to favorites
launch autoscroll
font size
0
reset
guitar tuner
Autoscroll
slow
fast
+/-
esc
set tempo
stop
Help us to improve Ultimate-Guitar.com Take our survey!
×
Author
Difficulty
novice
About this tab version
Dishwater bass tab first version. Was this info helpful? Yes No
[Intro]
G|---------------------------------|---------------------------------|
D|---------------------------------|---------------------------------|
A|---------------------------------|---------------------------------|
E|---------------------------------|---------------------------------|

G|---------------------------------|---------------------------------|
D|---------------------------------|---------------------------------|
A|---------------------------------|---------------------------------|
E|---------------------------------|---------------------------------|

[Verse]
G|---------------------------------|---------------------------------|
D|---------5-----0-3-------0-------|---------5-----0-3-------0-------|
A|---------------------------------|---------------------------------|
E|-3-------------------------------|-3-------------------------------|

G|---------------------------------|---------------------------------|
D|---------5-----0-3-------0-------|---------5-----0-3-------0-------|
A|---------------------------------|---------------------------------|
E|-3-------------------------------|-3-------------------------------|

G|---------------------------------|---------------------------------|
D|---------5-----0-3-------0-------|---------5-----0-3-------0-------|
A|---------------------------------|---------------------------------|
E|-3-------------------------------|-3-------------------------------|

G|---------------------------------|---------------------------------|
D|---------5-----0-3-------0-------|---------5-----0-3-------0-------|
A|---------------------------------|---------------------------------|
E|-3-------------------------------|-3-------------------------------|

[Chorus]
G|---------------------------------|---------------------------------|
D|---------5-----0-3-------0-------|---------5-----0-3-------0-------|
A|---------------------------------|---------------------------------|
E|-3-------------------------------|-3-------------------------------|

G|---------------------------------|---------------------------------|
D|---------5-----0-3-------0-------|---------5-----0-3-------0-------|
A|---------------------------------|---------------------------------|
E|-3-------------------------------|-3-------------------------------|

G|---------------------------------|---------------------------------|
D|---------5-----0-3-------0-------|---------5-----0-3-------0-------|
A|---------------------------------|---------------------------------|
E|-3-------------------------------|-3-------------------------------|

G|---------------------------------|---------------------------------|
D|---------5-----0-3-------0-------|---------5-----0-3-------0-------|
A|---------------------------------|---------------------------------|
E|-3-------------------------------|-3-------------------------------|

G|---------------------------------|---------------------------------|
D|---------5-----------------------|---------5-----------------------|
A|---------------------------------|---------------------------------|
E|-3-------------------------------|-3-------------------------------|

[Verse]
G|---------------------------------|---------------------------------|
D|---------5-----0-3-------0-------|---------5-----0-3-------0-------|
A|---------------------------------|---------------------------------|
E|-3-------------------------------|-3-------------------------------|

G|---------------------------------|---------------------------------|
D|---------5-----0-3-------0-------|---------5-----0-3-------0-------|
A|---------------------------------|---------------------------------|
E|-3-------------------------------|-3-------------------------------|

G|---------------------------------|---------------------------------|
D|---------5-----0-3-------0-------|---------5-----0-3-------0-------|
A|---------------------------------|---------------------------------|
E|-3-------------------------------|-3-------------------------------|

G|---------------------------------|---------------------------------|
D|---------5-----0-3-------0-------|---------5-----0-3-------0-------|
A|---------------------------------|---------------------------------|
E|-3-------------------------------|-3-------------------------------|

[Chorus]
G|---------------------------------|---------------------------------|
D|---------5-----0-3-------0-------|---------5-----0-3-------0-------|
A|---------------------------------|---------------------------------|
E|-3-------------------------------|-3-------------------------------|

G|---------------------------------|---------------------------------|
D|---------5-----0-3-------0-------|---------5-----0-3-------0-------|
A|---------------------------------|---------------------------------|
E|-3-------------------------------|-3-------------------------------|

G|---------------------------------|---------------------------------|
D|---------5-----0-3-------0-------|---------5-----0-3-------0-------|
A|---------------------------------|---------------------------------|
E|-3-------------------------------|-3-------------------------------|

G|---------------------------------|---------------------------------|
D|---------5-----0-3-------0-------|---------5-----0-3-------0-------|
A|---------------------------------|---------------------------------|
E|-3-------------------------------|-3-------------------------------|

G|---------------------------------|---------------------------------|
D|---------5-----------------------|---------5-----------------------|
A|---------------------------------|---------------------------------|
E|-3-------------------------------|-3-------------------------------|

[Bridge]
G|---------------------------------|---------------------------------|
D|---------5-----0-3-------0-------|---------5-----0-3-------0-------|
A|---------------------------------|---------------------------------|
E|-3-------------------------------|-3-------------------------------|

G|---------------------------------|---------------------------------|
D|---------5-----0-3-------0-------|---------5-----0-3-------0-------|
A|---------------------------------|---------------------------------|
E|-3-------------------------------|-3-------------------------------|

G|---------------------------------|---------------------------------|
D|---------5-----0-3-------0-------|---------5-----0-3-------0-------|
A|---------------------------------|---------------------------------|
E|-3-------------------------------|-3-------------------------------|

G|---------------------------------|---------------------------------|
D|---------5-----0-3-------0-------|---------5-----0-3-------0-------|
A|---------------------------------|---------------------------------|
E|-3-------------------------------|-3-------------------------------|

[Chorus]
G|---------------------------------|---------------------------------|
D|---------5-----0-3-------0-------|---------5-----0-3-------0-------|
A|---------------------------------|---------------------------------|
E|-3-------------------------------|-3-------------------------------|

G|---------------------------------|---------------------------------|
D|---------5-----0-3-------0-------|---------5-----0-3-------0-------|
A|---------------------------------|---------------------------------|
E|-3-------------------------------|-3-------------------------------|

G|---------------------------------|---------------------------------|
D|---------5-----0-3-------0-------|---------5-----0-3-------0-------|
A|---------------------------------|---------------------------------|
E|-3-------------------------------|-3-------------------------------|

G|---------------------------------|---------------------------------|
D|---------5-----0-3-------0-------|---------5-----0-3-------0-------|
A|---------------------------------|---------------------------------|
E|-3-------------------------------|-3-------------------------------|

G|---------------------------------|---------------------------------|
D|---------5-----0-3-------0-------|---------5-----0-3-------0-------|
A|---------------------------------|---------------------------------|
E|-3-------------------------------|-3-------------------------------|

[Outro]
G|---------------------------------|---------------------------------|
D|---------5-----0-3-------0-------|---------5-----0-3-------0-------|
A|---------------------------------|---------------------------------|
E|-3-------------------------------|-3-------------------------------|

G|---------------------------------|---------------------------------|
D|---------5-----0-3-------0-------|---------5-----0-3-------0-------|
A|---------------------------------|---------------------------------|
E|-3-------------------------------|-3-------------------------------|

G|---------------------------------|---------------------------------|
D|---------5-----0-3-------0-------|---------5-----0-3-------0-------|
A|---------------------------------|---------------------------------|
E|-3-------------------------------|-3-------------------------------|
Suggest correction
Give kudos to tab author, rate the tab!
1 2 3 4 5
comments
print report bad tab
guest
You may want to rate the tab now too:
select rating
Wanna post a correction for this tab? Suggest correction