Oops, an error
Loading. Please wait.

Empornium Tab

version 1
version 1

Whole song

Interactive

7 views 1 this week
no commentswrite comment
1 2 3 4 5
3 more votes to show rating
add to favorites
launch autoscroll
font size
0
reset
how to read this tab
guitar tuner
Autoscroll
slow
fast
+/-
esc
set tempo
stop
Help us to improve Ultimate-Guitar.com Take our survey!
×
Author
Difficulty
novice
[Intro]
e|-----------------|-----------------|-----------------|-----------------|
B|-----------------|-----------------|-----------------|-----------------|
G|-----------------|-----------------|-----------------|-----------------|
D|-----------------|-----------------|-----------------|-----------------|
A|-----------------|-----------------|-----------------|-----------------|
E|-----------------|-----------------|-----------------|-----------------|

e|-----------------|-----------------|-----------------|-----------------|
B|-----------------|-----------------|-----------------|-----------------|
G|-----------------|-----------------|-----------------|-----------------|
D|-----------------|-----------------|-----------------|-----------------|
A|-----------------|-----------------|-----------------|-----------------|
E|-----------------|-----------------|-----------------|-----------------|

[Verse]
e|-7-X-7-X-X-7-X-7-|-X-7-X-X-7-X-X-X-|-7-X-7-X-X-7-X-7-|-X-7-X-X-7-X-X-X-|
B|-5-X-5-X-X-5-X-5-|-X-5-X-X-5-X-X-X-|-5-X-5-X-X-5-X-5-|-X-5-X-X-5-X-X-X-|
G|-----------------|-----------------|-----------------|-----------------|
D|-----------------|-----------------|-----------------|-----------------|
A|-----------------|-----------------|-----------------|-----------------|
E|-----------------|-----------------|-----------------|-----------------|

e|-7-X-7-X-X-7-X-7-|-X-7-X-X-7-X-X-X-|-7-X-7-X-X-7-X-7-|-X-7-X-X-7-X-X-X-|
B|-5-X-5-X-X-5-X-5-|-X-5-X-X-5-X-X-X-|-5-X-5-X-X-5-X-5-|-X-5-X-X-5-X-X-X-|
G|-----------------|-----------------|-----------------|-----------------|
D|-----------------|-----------------|-----------------|-----------------|
A|-----------------|-----------------|-----------------|-----------------|
E|-----------------|-----------------|-----------------|-----------------|

e|-7-X-7-X-X-7-X-7-|-X-7-X-X-7-X-X-X-|-7-X-7-X-X-7-X-7-|-X-7-X-X-7-X-X-X-|
B|-5-X-5-X-X-5-X-5-|-X-5-X-X-5-X-X-X-|-5-X-5-X-X-5-X-5-|-X-5-X-X-5-X-X-X-|
G|-----------------|-----------------|-----------------|-----------------|
D|-----------------|-----------------|-----------------|-----------------|
A|-----------------|-----------------|-----------------|-----------------|
E|-----------------|-----------------|-----------------|-----------------|

e|-7-X-7-X-X-7-X-7-|-X-7-X-X-7-X-X-X-|-7-X-7-X-X-7-X-7-|-X-7-X-X-7-X-X-X-|
B|-5-X-5-X-X-5-X-5-|-X-5-X-X-5-X-X-X-|-5-X-5-X-X-5-X-5-|-X-5-X-X-5-X-X-X-|
G|-----------------|-----------------|-----------------|-----------------|
D|-----------------|-----------------|-----------------|-----------------|
A|-----------------|-----------------|-----------------|-----------------|
E|-----------------|-----------------|-----------------|-----------------|

e|-7-X-7-X-X-7-X-7-|-X-7-X-X-7-X-X-X-|-7-X-7-X-X-7-X-7-|-X-7-X-X-7-X-X-X-|
B|-5-X-5-X-X-5-X-5-|-X-5-X-X-5-X-X-X-|-5-X-5-X-X-5-X-5-|-X-5-X-X-5-X-X-X-|
G|-----------------|-----------------|-----------------|-----------------|
D|-----------------|-----------------|-----------------|-----------------|
A|-----------------|-----------------|-----------------|-----------------|
E|-----------------|-----------------|-----------------|-----------------|

e|-7-X-7-X-X-7-X-7-|-X-7-X-X-7-X-X-X-|-7-X-7-X-X-7-X-7-|-X-7-X-X-7-X-X-X-|
B|-5-X-5-X-X-5-X-5-|-X-5-X-X-5-X-X-X-|-5-X-5-X-X-5-X-5-|-X-5-X-X-5-X-X-X-|
G|-----------------|-----------------|-----------------|-----------------|
D|-----------------|-----------------|-----------------|-----------------|
A|-----------------|-----------------|-----------------|-----------------|
E|-----------------|-----------------|-----------------|-----------------|

e|-7-X-7-X-X-7-X-7-|-X-7-X-X-7-X-X-X-|-7-X-7-X-X-7-X-7-|-X-7-X-X-7-X-X-X-|
B|-5-X-5-X-X-5-X-5-|-X-5-X-X-5-X-X-X-|-5-X-5-X-X-5-X-5-|-X-5-X-X-5-X-X-X-|
G|-----------------|-----------------|-----------------|-----------------|
D|-----------------|-----------------|-----------------|-----------------|
A|-----------------|-----------------|-----------------|-----------------|
E|-----------------|-----------------|-----------------|-----------------|

e|-7-X-7-X-X-7-X-7-|-X-7-X-X-7-X-X-X-|-7-X-7-X-X-7-X-7-|-X-7-X-X-7-X-X-X-|
B|-5-X-5-X-X-5-X-5-|-X-5-X-X-5-X-X-X-|-5-X-5-X-X-5-X-5-|-X-5-X-X-5-X-X-X-|
G|-----------------|-----------------|-----------------|-----------------|
D|-----------------|-----------------|-----------------|-----------------|
A|-----------------|-----------------|-----------------|-----------------|
E|-----------------|-----------------|-----------------|-----------------|

[Chorus]
e|-7-X-7-X-X-7-X-7-|-X-7-X-X-7-X-X-X-|-7-X-7-X-X-7-X-7-|-X-7-X-X-7-X-X-X-|
B|-5-X-5-X-X-5-X-5-|-X-5-X-X-5-X-X-X-|-5-X-5-X-X-5-X-5-|-X-5-X-X-5-X-X-X-|
G|-----------------|-----------------|-----------------|-----------------|
D|-----------------|-----------------|-----------------|-----------------|
A|-----------------|-----------------|-----------------|-----------------|
E|-----------------|-----------------|-----------------|-----------------|

e|-7-X-7-X-X-7-X-7-|-X-7-X-X-7-X-X-X-|-7-X-7-X-X-7-X-7-|-X-7-X-X-7-X-X-X-|
B|-5-X-5-X-X-5-X-5-|-X-5-X-X-5-X-X-X-|-5-X-5-X-X-5-X-5-|-X-5-X-X-5-X-X-X-|
G|-----------------|-----------------|-----------------|-----------------|
D|-----------------|-----------------|-----------------|-----------------|
A|-----------------|-----------------|-----------------|-----------------|
E|-----------------|-----------------|-----------------|-----------------|

[Verse]
e|-7-X-7-X-X-7-X-7-|-X-7-X-X-7-X-X-X-|-7-X-7-X-X-7-X-7-|-X-7-X-X-7-X-X-X-|
B|-5-X-5-X-X-5-X-5-|-X-5-X-X-5-X-X-X-|-5-X-5-X-X-5-X-5-|-X-5-X-X-5-X-X-X-|
G|-----------------|-----------------|-----------------|-----------------|
D|-----------------|-----------------|-----------------|-----------------|
A|-----------------|-----------------|-----------------|-----------------|
E|-----------------|-----------------|-----------------|-----------------|

e|-7-X-7-X-X-7-X-7-|-X-7-X-X-7-X-X-X-|-7-X-7-X-X-7-X-7-|-X-7-X-X-7-X-X-X-|
B|-5-X-5-X-X-5-X-5-|-X-5-X-X-5-X-X-X-|-5-X-5-X-X-5-X-5-|-X-5-X-X-5-X-X-X-|
G|-----------------|-----------------|-----------------|-----------------|
D|-----------------|-----------------|-----------------|-----------------|
A|-----------------|-----------------|-----------------|-----------------|
E|-----------------|-----------------|-----------------|-----------------|

e|-7-X-7-X-X-7-X-7-|-X-7-X-X-7-X-X-X-|-7-X-7-X-X-7-X-7-|-X-7-X-X-7-X-X-X-|
B|-5-X-5-X-X-5-X-5-|-X-5-X-X-5-X-X-X-|-5-X-5-X-X-5-X-5-|-X-5-X-X-5-X-X-X-|
G|-----------------|-----------------|-----------------|-----------------|
D|-----------------|-----------------|-----------------|-----------------|
A|-----------------|-----------------|-----------------|-----------------|
E|-----------------|-----------------|-----------------|-----------------|

e|-7-X-7-X-X-7-X-7-|-X-7-X-X-7-X-X-X-|-7-X-7-X-X-7-X-7-|-X-7-X-X-7-X-X-X-|
B|-5-X-5-X-X-5-X-5-|-X-5-X-X-5-X-X-X-|-5-X-5-X-X-5-X-5-|-X-5-X-X-5-X-X-X-|
G|-----------------|-----------------|-----------------|-----------------|
D|-----------------|-----------------|-----------------|-----------------|
A|-----------------|-----------------|-----------------|-----------------|
E|-----------------|-----------------|-----------------|-----------------|

e|-7-X-7-X-X-7-X-7-|-X-7-X-X-7-X-X-X-|-7-X-7-X-X-7-X-7-|-X-7-X-X-7-X-X-X-|
B|-5-X-5-X-X-5-X-5-|-X-5-X-X-5-X-X-X-|-5-X-5-X-X-5-X-5-|-X-5-X-X-5-X-X-X-|
G|-----------------|-----------------|-----------------|-----------------|
D|-----------------|-----------------|-----------------|-----------------|
A|-----------------|-----------------|-----------------|-----------------|
E|-----------------|-----------------|-----------------|-----------------|

e|-7-X-7-X-X-7-X-7-|-X-7-X-X-7-X-X-X-|-7-X-7-X-X-7-X-7-|-X-7-X-X-7-X-X-X-|
B|-5-X-5-X-X-5-X-5-|-X-5-X-X-5-X-X-X-|-5-X-5-X-X-5-X-5-|-X-5-X-X-5-X-X-X-|
G|-----------------|-----------------|-----------------|-----------------|
D|-----------------|-----------------|-----------------|-----------------|
A|-----------------|-----------------|-----------------|-----------------|
E|-----------------|-----------------|-----------------|-----------------|

[Chorus]
e|-7-X-7-X-X-7-X-7-|-X-7-X-X-7-X-X-X-|-7-X-7-X-X-7-X-7-|-X-7-X-X-7-X-X-X-|
B|-5-X-5-X-X-5-X-5-|-X-5-X-X-5-X-X-X-|-5-X-5-X-X-5-X-5-|-X-5-X-X-5-X-X-X-|
G|-----------------|-----------------|-----------------|-----------------|
D|-----------------|-----------------|-----------------|-----------------|
A|-----------------|-----------------|-----------------|-----------------|
E|-----------------|-----------------|-----------------|-----------------|

e|-7-X-7-X-X-7-X-7-|-X-7-X-X-7-X-X-X-|-7-X-7-X-X-7-X-7-|-X-7-X-X-7-X-X-X-|
B|-5-X-5-X-X-5-X-5-|-X-5-X-X-5-X-X-X-|-5-X-5-X-X-5-X-5-|-X-5-X-X-5-X-X-X-|
G|-----------------|-----------------|-----------------|-----------------|
D|-----------------|-----------------|-----------------|-----------------|
A|-----------------|-----------------|-----------------|-----------------|
E|-----------------|-----------------|-----------------|-----------------|

[Verse]
e|-7-X-7-X-X-7-X-7-|-X-7-X-X-7-X-X-X-|-7-X-7-X-X-7-X-7-|-X-7-X-X-7-X-X-X-|
B|-5-X-5-X-X-5-X-5-|-X-5-X-X-5-X-X-X-|-5-X-5-X-X-5-X-5-|-X-5-X-X-5-X-X-X-|
G|-----------------|-----------------|-----------------|-----------------|
D|-----------------|-----------------|-----------------|-----------------|
A|-----------------|-----------------|-----------------|-----------------|
E|-----------------|-----------------|-----------------|-----------------|

e|-7-X-7-X-X-7-X-7-|-X-7-X-X-7-X-X-X-|-7-X-7-X-X-7-X-7-|-X-7-X-X-7-X-X-X-|
B|-5-X-5-X-X-5-X-5-|-X-5-X-X-5-X-X-X-|-5-X-5-X-X-5-X-5-|-X-5-X-X-5-X-X-X-|
G|-----------------|-----------------|-----------------|-----------------|
D|-----------------|-----------------|-----------------|-----------------|
A|-----------------|-----------------|-----------------|-----------------|
E|-----------------|-----------------|-----------------|-----------------|

e|-7-X-7-X-X-7-X-7-|-X-7-X-X-7-X-X-X-|-7-X-7-X-X-7-X-7-|-X-7-X-X-7-X-X-X-|
B|-5-X-5-X-X-5-X-5-|-X-5-X-X-5-X-X-X-|-5-X-5-X-X-5-X-5-|-X-5-X-X-5-X-X-X-|
G|-----------------|-----------------|-----------------|-----------------|
D|-----------------|-----------------|-----------------|-----------------|
A|-----------------|-----------------|-----------------|-----------------|
E|-----------------|-----------------|-----------------|-----------------|

e|-7-X-7-X-X-7-X-7-|-X-7-X-X-7-X-X-X-|-7-X-7-X-X-7-X-7-|-X-7-X-X-7-X-X-X-|
B|-5-X-5-X-X-5-X-5-|-X-5-X-X-5-X-X-X-|-5-X-5-X-X-5-X-5-|-X-5-X-X-5-X-X-X-|
G|-----------------|-----------------|-----------------|-----------------|
D|-----------------|-----------------|-----------------|-----------------|
A|-----------------|-----------------|-----------------|-----------------|
E|-----------------|-----------------|-----------------|-----------------|

e|-7-X-7-X-X-7-X-7-|-X-7-X-X-7-X-X-X-|-7-X-7-X-X-7-X-7-|-X-7-X-X-7-X-X-X-|
B|-5-X-5-X-X-5-X-5-|-X-5-X-X-5-X-X-X-|-5-X-5-X-X-5-X-5-|-X-5-X-X-5-X-X-X-|
G|-----------------|-----------------|-----------------|-----------------|
D|-----------------|-----------------|-----------------|-----------------|
A|-----------------|-----------------|-----------------|-----------------|
E|-----------------|-----------------|-----------------|-----------------|

e|-7-X-7-X-X-7-X-7-|-X-7-X-X-7-X-X-X-|-7-X-7-X-X-7-X-7-|-X-7-X-X-7-X-X-X-|
B|-5-X-5-X-X-5-X-5-|-X-5-X-X-5-X-X-X-|-5-X-5-X-X-5-X-5-|-X-5-X-X-5-X-X-X-|
G|-----------------|-----------------|-----------------|-----------------|
D|-----------------|-----------------|-----------------|-----------------|
A|-----------------|-----------------|-----------------|-----------------|
E|-----------------|-----------------|-----------------|-----------------|

[Chorus]
e|-7-X-7-X-X-7-X-7-|-X-7-X-X-7-X-X-X-|-7-X-7-X-X-7-X-7-|-X-7-X-X-7-X-X-X-|
B|-5-X-5-X-X-5-X-5-|-X-5-X-X-5-X-X-X-|-5-X-5-X-X-5-X-5-|-X-5-X-X-5-X-X-X-|
G|-----------------|-----------------|-----------------|-----------------|
D|-----------------|-----------------|-----------------|-----------------|
A|-----------------|-----------------|-----------------|-----------------|
E|-----------------|-----------------|-----------------|-----------------|

e|-7-X-7-X-X-7-X-7-|-X-7-X-X-7-X-X-X-|-7-X-7-X-X-7-X-7-|-X-7-X-X-7-X-X-X-|
B|-5-X-5-X-X-5-X-5-|-X-5-X-X-5-X-X-X-|-5-X-5-X-X-5-X-5-|-X-5-X-X-5-X-X-X-|
G|-----------------|-----------------|-----------------|-----------------|
D|-----------------|-----------------|-----------------|-----------------|
A|-----------------|-----------------|-----------------|-----------------|
E|-----------------|-----------------|-----------------|-----------------|

[Verse]
e|-7-X-7-X-X-7-X-7-|-X-7-X-X-7-X-X-X-|-7-X-7-X-X-7-X-7-|-X-7-X-X-7-X-X-X-|
B|-5-X-5-X-X-5-X-5-|-X-5-X-X-5-X-X-X-|-5-X-5-X-X-5-X-5-|-X-5-X-X-5-X-X-X-|
G|-----------------|-----------------|-----------------|-----------------|
D|-----------------|-----------------|-----------------|-----------------|
A|-----------------|-----------------|-----------------|-----------------|
E|-----------------|-----------------|-----------------|-----------------|

e|-7-X-7-X-X-7-X-7-|-X-7-X-X-7-X-X-X-|-7-X-7-X-X-7-X-7-|-X-7-X-X-7-X-X-X-|
B|-5-X-5-X-X-5-X-5-|-X-5-X-X-5-X-X-X-|-5-X-5-X-X-5-X-5-|-X-5-X-X-5-X-X-X-|
G|-----------------|-----------------|-----------------|-----------------|
D|-----------------|-----------------|-----------------|-----------------|
A|-----------------|-----------------|-----------------|-----------------|
E|-----------------|-----------------|-----------------|-----------------|

e|-7-X-7-X-X-7-X-7-|-X-7-X-X-7-X-X-X-|-7-X-7-X-X-7-X-7-|-X-7-X-X-7-X-X-X-|
B|-5-X-5-X-X-5-X-5-|-X-5-X-X-5-X-X-X-|-5-X-5-X-X-5-X-5-|-X-5-X-X-5-X-X-X-|
G|-----------------|-----------------|-----------------|-----------------|
D|-----------------|-----------------|-----------------|-----------------|
A|-----------------|-----------------|-----------------|-----------------|
E|-----------------|-----------------|-----------------|-----------------|

e|-7-X-7-X-X-7-X-7-|-X-7-X-X-7-X-X-X-|-7-X-7-X-X-7-X-7-|-X-7-X-X-7-X-X-X-|
B|-5-X-5-X-X-5-X-5-|-X-5-X-X-5-X-X-X-|-5-X-5-X-X-5-X-5-|-X-5-X-X-5-X-X-X-|
G|-----------------|-----------------|-----------------|-----------------|
D|-----------------|-----------------|-----------------|-----------------|
A|-----------------|-----------------|-----------------|-----------------|
E|-----------------|-----------------|-----------------|-----------------|

[Chorus]
e|-7-X-7-X-X-7-X-7-|-X-7-X-X-7-X-X-X-|-7-X-7-X-X-7-X-7-|-X-7-X-X-7-X-X-X-|
B|-5-X-5-X-X-5-X-5-|-X-5-X-X-5-X-X-X-|-5-X-5-X-X-5-X-5-|-X-5-X-X-5-X-X-X-|
G|-----------------|-----------------|-----------------|-----------------|
D|-----------------|-----------------|-----------------|-----------------|
A|-----------------|-----------------|-----------------|-----------------|
E|-----------------|-----------------|-----------------|-----------------|

e|-7-X-7-X-X-7-X-7-|-X-7-X-X-7-X-X-X-|-7-X-7-X-X-7-X-7-|-X-7-X-X-7-X-X-X-|
B|-5-X-5-X-X-5-X-5-|-X-5-X-X-5-X-X-X-|-5-X-5-X-X-5-X-5-|-X-5-X-X-5-X-X-X-|
G|-----------------|-----------------|-----------------|-----------------|
D|-----------------|-----------------|-----------------|-----------------|
A|-----------------|-----------------|-----------------|-----------------|
E|-----------------|-----------------|-----------------|-----------------|
Suggest correction
Give kudos to tab author, rate the tab!
1 2 3 4 5
comments
print report bad tab
guest
You may want to rate the tab now too:
select rating
Wanna post a correction for this tab? Suggest correction