Oops, an error
Loading. Please wait.

Fuck The Mpaa Bass

version 1
version 1

Whole song

  • First bass version of Fuck The MPAA.

Interactive

16 views 3 this week
no commentswrite comment
1 2 3 4 5
3 more votes to show rating
add to favorites
launch autoscroll
font size
0
reset
guitar tuner
×
Best way to learn
"Fuck The Mpaa"
Autoscroll
slow
fast
+/-
esc
set tempo
stop
Author
Difficulty
About this tab version
First bass version of Fuck The MPAA. Was this info helpful? Yes No
[Intro]
G|-----------------|-----------------|-----------------|-----------------|
D|-----7-----------|-----7-----------|-----7-----------|-----7-----------|
A|-----------------|-----------------|-----------------|-----------------|
E|-5---5---8---5---|-5---5---8---5---|-5---5---8---5---|-5---5---8-------|

[Verse]
G|-----------------|-----------------|-----------------|-----------------|
D|-----7-----------|-----7-----------|-----7-----------|-----7-----------|
A|-----------------|-----------------|-----------------|-----------------|
E|-5---5---8---5---|-5---5---8---5---|-5---5---8---5---|-5---5---8-------|

G|-----------------|-----------------|-----------------|-----------------|
D|-----7-----------|-----7-----------|-----7-----------|-----7-----------|
A|-----------------|-----------------|-----------------|-----------------|
E|-5---5---8---5---|-5---5---8---5---|-5---5---8---5---|-5---5---8-------|

G|-----------------|-----------------|-----------------|-----------------|
D|-----7-----------|-----7-----------|-----7-----------|-----7-----------|
A|-----------------|-----------------|-----------------|-----------------|
E|-5---5---8---5---|-5---5---8---5---|-5---5---8---5---|-5---5---8-------|

G|-----------------|-----------------|-----------------|-----------------|
D|-----7-----------|-----7-----------|-----7-----------|-----7-----------|
A|-----------------|-----------------|-----------------|-----------------|
E|-5---5---8---5---|-5---5---8---5---|-5---5---8---5---|-5---5---8-------|

[Chorus]
G|-----------------|-----------------|-----------------|-----------------|
D|-----7-----------|-----7-----------|-----7-----------|-----7-----------|
A|-----------------|-----------------|-----------------|-----------------|
E|-5---5---8---5---|-5---5---8---5---|-5---5---8---5---|-5---5---8-------|

G|-----------------|-----------------|-----------------|-----------------|
D|-----7-----------|-----7-----------|-----7-----------|-----7-----------|
A|-----------------|-----------------|-----------------|-----------------|
E|-5---5---8---5---|-5---5---8---5---|-5---5---8---5---|-5---5---8-------|

[Verse]
G|-----------------|-----------------|-----------------|-----------------|
D|-----7-----------|-----7-----------|-----7-----------|-----7-----------|
A|-----------------|-----------------|-----------------|-----------------|
E|-5---5---8---5---|-5---5---8---5---|-5---5---8---5---|-5---5---8-------|

G|-----------------|-----------------|-----------------|-----------------|
D|-----7-----------|-----7-----------|-----7-----------|-----7-----------|
A|-----------------|-----------------|-----------------|-----------------|
E|-5---5---8---5---|-5---5---8---5---|-5---5---8---5---|-5---5---8-------|

G|-----------------|-----------------|-----------------|-----------------|
D|-----7-----------|-----7-----------|-----7-----------|-----7-----------|
A|-----------------|-----------------|-----------------|-----------------|
E|-5---5---8---5---|-5---5---8---5---|-5---5---8---5---|-5---5---8-------|

[Chorus]
G|-----------------|-----------------|-----------------|-----------------|
D|-----7-----------|-----7-----------|-----7-----------|-----7-----------|
A|-----------------|-----------------|-----------------|-----------------|
E|-5---5---8---5---|-5---5---8---5---|-5---5---8---5---|-5---5---8-------|

G|-----------------|-----------------|-----------------|-----------------|
D|-----7-----------|-----7-----------|-----7-----------|-----7-----------|
A|-----------------|-----------------|-----------------|-----------------|
E|-5---5---8---5---|-5---5---8---5---|-5---5---8---5---|-5---5---8-------|

[Verse]
G|-----------------|-----------------|-----------------|-----------------|
D|-----7-----------|-----7-----------|-----7-----------|-----7-----------|
A|-----------------|-----------------|-----------------|-----------------|
E|-5---5---8---5---|-5---5---8---5---|-5---5---8---5---|-5---5---8-------|

G|-----------------|-----------------|-----------------|-----------------|
D|-----7-----------|-----7-----------|-----7-----------|-----7-----------|
A|-----------------|-----------------|-----------------|-----------------|
E|-5---5---8---5---|-5---5---8---5---|-5---5---8---5---|-5---5---8-------|

G|-----------------|-----------------|-----------------|-----------------|
D|-----7-----------|-----7-----------|-----7-----------|-----7-----------|
A|-----------------|-----------------|-----------------|-----------------|
E|-5---5---8---5---|-5---5---8---5---|-5---5---8---5---|-5---5---8-------|

G|-----------------|-----------------|-----------------|-----------------|
D|-----7-----------|-----7-----------|-----7-----------|-----7-----------|
A|-----------------|-----------------|-----------------|-----------------|
E|-5---5---8---5---|-5---5---8---5---|-5---5---8---5---|-5---5---8-------|

[Chorus]
G|-----------------|-----------------|-----------------|-----------------|
D|-----7-----------|-----7-----------|-----7-----------|-----7-----------|
A|-----------------|-----------------|-----------------|-----------------|
E|-5---5---8---5---|-5---5---8---5---|-5---5---8---5---|-5---5---8-------|

G|-----------------|-----------------|-----------------|-----------------|
D|-----7-----------|-----7-----------|-----7-----------|-----7-----------|
A|-----------------|-----------------|-----------------|-----------------|
E|-5---5---8---5---|-5---5---8---5---|-5---5---8---5---|-5---5---8-------|

[Bridge]
G|-----------------|-----------------|-----------------|-----------------|
D|-----7-----------|-----7-----------|-----7-----------|-----7-----------|
A|-----------------|-----------------|-----------------|-----------------|
E|-5---5---8---5---|-5---5---8---5---|-5---5---8---5---|-5---5---8---5---|

G|-----------------|-----------------|-----------------|-----------------|
D|-----7-----------|-----7-----------|-----7-----------|-----7-----------|
A|-----------------|-----------------|-----------------|-----------------|
E|-5---5---8---5---|-5---5---8---5---|-5---5---8---5---|-5---5---8-------|

[Chorus]
G|-----------------|-----------------|-----------------|-----------------|
D|-----7-----------|-----7-----------|-----7-----------|-----7-----------|
A|-----------------|-----------------|-----------------|-----------------|
E|-5---5---8---5---|-5---5---8---5---|-5---5---8---5---|-5---5---8-------|

G|-----------------|-----------------|-----------------|-----------------|
D|-----7-----------|-----7-----------|-----7-----------|-----7-----------|
A|-----------------|-----------------|-----------------|-----------------|
E|-5---5---8---5---|-5---5---8---5---|-5---5---8---5---|-5---5---8-------|
Suggest correction
Give kudos to tab author, rate the tab!
1 2 3 4 5
comments
print report bad tab
guest
You may want to rate the tab now too:
select rating
Wanna post a correction for this tab? Suggest correction