Oops, an error
Loading. Please wait.

If I Ruled The World Bass Tab

version 1
version 1

Whole song

  • If I ruled the world bass tab by fsr.

Interactive

4 views 1 this week
no commentswrite comment
1 2 3 4 5
3 more votes to show rating
add to favorites
launch autoscroll
font size
0
reset
guitar tuner
Autoscroll
slow
fast
+/-
esc
set tempo
stop
Help us to improve Ultimate-Guitar.com Take our survey!
×
Author
Difficulty
Tuning
novice
C# G# E B F# C#
About this tab version
If I ruled the world bass tab by fsr. Was this info helpful? Yes No
[Intro]
 E|----------------|----------------|----------------|----------------|
 B|----------------|------------2---|----------------|----------------|
F#|----------------|-2-2------------|----------------|-2-2------------|
C#|3-3-------------|----------------|-3-3------------|------------0-0-|

 E|----------------|----------------|----------------|----------------|
 B|----------------|------------2---|----------------|----------------|
F#|----------------|-2-2------------|----------------|-2-2------------|
C#|3-3-------------|----------------|-3-3------------|------------0-0-|

[Verse]
 E|----------------|----------------|----------------|----------------|
 B|----------------|------------2---|----------------|----------------|
F#|----------------|-2-2------------|----------------|-2-2------------|
C#|3-3-------------|----------------|-3-3------------|------------0-0-|

 E|----------------|----------------|----------------|----------------|
 B|----------------|------------2---|----------------|----------------|
F#|----------------|-2-2------------|----------------|-2-2------------|
C#|3-3-------------|----------------|-3-3------------|------------0-0-|

 E|----------------|----------------|----------------|----------------|
 B|----------------|------------2---|----------------|----------------|
F#|----------------|-2-2------------|----------------|-2-2------------|
C#|3-3-------------|----------------|-3-3------------|------------0-0-|

[Chorus]
 E|----------------|----------------|----------------|----------------|
 B|----------------|------------2---|----------------|----------------|
F#|----------------|-2-2------------|----------------|-2-2------------|
C#|3-3-------------|----------------|-3-3------------|------------0-0-|

 E|----------------|----------------|----------------|----------------|
 B|----------------|------------2---|----------------|----------------|
F#|----------------|-2-2------------|----------------|-2-2------------|
C#|3-3-------------|----------------|-3-3------------|------------0-0-|

[Verse]
 E|----------------|----------------|----------------|----------------|
 B|----------------|------------2---|----------------|----------------|
F#|----------------|-2-2------------|----------------|-2-2------------|
C#|3-3-------------|----------------|-3-3------------|------------0-0-|

 E|----------------|----------------|----------------|----------------|
 B|----------------|------------2---|----------------|----------------|
F#|----------------|-2-2------------|----------------|-2-2------------|
C#|3-3-------------|----------------|-3-3------------|------------0-0-|

[Chorus]
 E|----------------|----------------|----------------|----------------|
 B|----------------|------------2---|----------------|----------------|
F#|----------------|-2-2------------|----------------|-2-2------------|
C#|3-3-------------|----------------|-3-3------------|------------0-0-|

 E|----------------|----------------|----------------|----------------|
 B|----------------|------------2---|----------------|----------------|
F#|----------------|-2-2------------|----------------|-2-2------------|
C#|3-3-------------|----------------|-3-3------------|------------0-0-|

[Verse]
 E|----------------|----------------|----------------|----------------|
 B|----------------|------------2---|----------------|----------------|
F#|----------------|-2-2------------|----------------|-2-2------------|
C#|3-3-------------|----------------|-3-3------------|------------0-0-|

 E|----------------|----------------|----------------|----------------|
 B|----------------|------------2---|----------------|----------------|
F#|----------------|-2-2------------|----------------|-2-2------------|
C#|3-3-------------|----------------|-3-3------------|------------0-0-|

 E|----------------|----------------|----------------|----------------|
 B|----------------|------------2---|----------------|----------------|
F#|----------------|-2-2------------|----------------|-2-2------------|
C#|3-3-------------|----------------|-3-3------------|------------0-0-|

[Chorus]
 E|----------------|----------------|----------------|----------------|
 B|----------------|------------2---|----------------|----------------|
F#|----------------|-2-2------------|----------------|-2-2------------|
C#|3-3-------------|----------------|-3-3------------|------------0-0-|

 E|----------------|----------------|----------------|----------------|
 B|----------------|------------2---|----------------|----------------|
F#|----------------|-2-2------------|----------------|-2-2------------|
C#|3-3-------------|----------------|-3-3------------|------------0-0-|

[Bridge]
 E|----------------|----------------|----------------|----------------|
 B|----------------|------------2---|----------------|----------------|
F#|----------------|-2-2------------|----------------|-2-2------------|
C#|3-3-------------|----------------|-3-3------------|------------0-0-|

[Verse]
 E|----------------|----------------|----------------|----------------|
 B|----------------|------------2---|----------------|----------------|
F#|----------------|-2-2------------|----------------|-2-2------------|
C#|3-3-------------|----------------|-3-3------------|------------0-0-|

 E|----------------|----------------|----------------|----------------|
 B|----------------|------------2---|----------------|----------------|
F#|----------------|-2-2------------|----------------|-2-2------------|
C#|3-3-------------|----------------|-3-3------------|------------0-0-|

 E|----------------|----------------|----------------|----------------|
 B|----------------|------------2---|----------------|----------------|
F#|----------------|-2-2------------|----------------|-2-2------------|
C#|3-3-------------|----------------|-3-3------------|------------0-0-|

[Chorus]
 E|----------------|----------------|----------------|----------------|
 B|----------------|------------2---|----------------|----------------|
F#|----------------|-2-2------------|----------------|-2-2------------|
C#|3-3-------------|----------------|-3-3------------|------------0-0-|

 E|----------------|----------------|----------------|----------------|
 B|----------------|------------2---|----------------|----------------|
F#|----------------|-2-2------------|----------------|-2-2------------|
C#|3-3-------------|----------------|-3-3------------|------------0-0-|

[Outro]
 E|----------------|----------------|----------------|----------------|
 B|----------------|------------2---|----------------|----------------|
F#|----------------|-2-2------------|----------------|-2-2------------|
C#|3-3-------------|----------------|-3-3------------|------------0-0-|

 E|----------------|----------------|----------------|----------------|
 B|----------------|------------2---|----------------|----------------|
F#|----------------|-2-2------------|----------------|-2-2------------|
C#|3-3-------------|----------------|-3-3------------|------------0-0-|

 E|----------------|----------------|----------------|----------------|
 B|----------------|------------2---|----------------|----------------|
F#|----------------|-2-2------------|----------------|-2-2------------|
C#|3-3-------------|----------------|-3-3------------|------------0-0-|

 E|----------------|----------------|----------------|----------------|
 B|----------------|------------2---|----------------|----------------|
F#|----------------|-2-2------------|----------------|-2-2------------|
C#|3-3-------------|----------------|-3-3------------|------------0-0-|
Suggest correction
Give kudos to tab author, rate the tab!
1 2 3 4 5
comments
print report bad tab
guest
You may want to rate the tab now too:
select rating
Wanna post a correction for this tab? Suggest correction