Oops, an error
Loading. Please wait.

Snakes On A Plane Bass Tab

version 1
version 1

Whole song

  • TB-303 Synth tabbed for playing on a bass.

Interactive

1 view 1 this week
no commentswrite comment
1 2 3 4 5
3 more votes to show rating
add to favorites
launch autoscroll
font size
0
reset
guitar tuner
Autoscroll
slow
fast
+/-
esc
set tempo
stop
Help us to improve Ultimate-Guitar.com Take our survey!
×
Author
Difficulty
intermediate
About this tab version
TB-303 Synth tabbed for playing on a bass. Was this info helpful? Yes No
This is normaly played on a TB-303 Bass Synth. 
You can use filter/synth pedals to mimic the sound.

[Intro]
G|---------------------------------|---------------------------------|
D|---------------------------------|---------------------------------|
A|-5-5-5---3-5-6-2-5---------------|-5-5-5---3-5-6-3-6-------3-------|
E|---------------------------------|---------------------------------|

G|---------------------------------|---------------------------------|
D|---------------------------------|---------------------------------|
A|-5-5-5---3-5-6-2-5---------------|-5-5-5-3-6-5-3---6---3-5-3-5-3---|
E|---------------------------------|---------------------------------|

[Verse]
G|---------------------------------|---------------------------------|
D|---------------------------------|---------------------------------|
A|-5-5-5---3-5-6-2-5---------------|-5-5-5---3-5-6-3-6-------3-------|
E|---------------------------------|---------------------------------|

G|---------------------------------|---------------------------------|
D|---------------------------------|---------------------------------|
A|-5-5-5---3-5-6-2-5---------------|-5-5-5-3-6-5-3---6---3-5-3-5-3---|
E|---------------------------------|---------------------------------|

G|---------------------------------|---------------------------------|
D|---------------------------------|---------------------------------|
A|-5-5-5---3-5-6-2-5---------------|-5-5-5---3-5-6-3-6-------3-------|
E|---------------------------------|---------------------------------|

G|---------------------------------|---------------------------------|
D|---------------------------------|---------------------------------|
A|-5-5-5---3-5-6-2-5---------------|-5-5-5-3-6-5-3---6---3-5-3-5-3---|
E|---------------------------------|---------------------------------|

G|---------------------------------|---------------------------------|
D|---------------------------------|---------------------------------|
A|-5-5-5---3-5-6-2-5---------------|-5-5-5---3-5-6-3-6-------3-------|
E|---------------------------------|---------------------------------|

G|---------------------------------|---------------------------------|
D|---------------------------------|---------------------------------|
A|-5-5-5---3-5-6-2-5---------------|-5-5-5-3-6-5-3---6---3-5-3-5-3---|
E|---------------------------------|---------------------------------|

G|---------------------------------|---------------------------------|
D|---------------------------------|---------------------------------|
A|-5-5-5---3-5-6-2-5---------------|-5-5-5---3-5-6-3-6-------3-------|
E|---------------------------------|---------------------------------|

G|---------------------------------|---------------------------------|
D|---------------------------------|---------------------------------|
A|-5-5-5---3-5-6-2-5---------------|-5-5-5-3-6-5-3---6---3-5-3-5-3---|
E|---------------------------------|---------------------------------|

G|---------------------------------|---------------------------------|
D|---------------------------------|---------------------------------|
A|-5-5-5---3-5-6-2-5---------------|-5-5-5---3-5-6-3-6-------3-------|
E|---------------------------------|---------------------------------|

G|---------------------------------|---------------------------------|
D|---------------------------------|---------------------------------|
A|-5-5-5---3-5-6-2-5---------------|-5-5-5-3-6-5-3---6---3-5-3-5-3---|
E|---------------------------------|---------------------------------|

[Chorus]
G|---------------------------------|---------------------------------|
D|---------------------------------|---------------------------------|
A|-5-5-5---3-5-6-2-5---------------|-5-5-5---3-5-6-3-6-------3-------|
E|---------------------------------|---------------------------------|

G|---------------------------------|---------------------------------|
D|---------------------------------|---------------------------------|
A|-5-5-5---3-5-6-2-5---------------|-5-5-5-3-6-5-3---6---3-5-3-5-3---|
E|---------------------------------|---------------------------------|

[Filter Part]
G|---------------------------------|---------------------------------|
D|---------------------------------|---------------------------------|
A|-----5---5-------5---5-------5---|-5---5-------5---5-------5---5---|
E|---------------------------------|---------------------------------|

G|---------------------------------|---------------------------------|
D|---------------------------------|---------------------------------|
A|-5-5-5---3-5-6-2-5---------------|-5-5-5-3-6-5-3---6---3-5-3-5-3---|
E|---------------------------------|---------------------------------|

G|---------------------------------|---------------------------------|
D|---------------------------------|---------------------------------|
A|-----5---5-------5---5-------5---|-5---5-------5---5-------5---5---|
E|---------------------------------|---------------------------------|

G|---------------------------------|---------------------------------|
D|---------------------------------|---------------------------------|
A|-5-5-5---3-5-6-2-5---------------|-5-5-5-3-6-5-3---6---3-5-3-5-3---|
E|---------------------------------|---------------------------------|

[Verse]
G|---------------------------------|---------------------------------|
D|---------------------------------|---------------------------------|
A|-5-5-5---3-5-6-2-5---------------|-5-5-5---3-5-6-3-6-------3-------|
E|---------------------------------|---------------------------------|

G|---------------------------------|---------------------------------|
D|---------------------------------|---------------------------------|
A|-5-5-5---3-5-6-2-5---------------|-5-5-5-3-6-5-3---6---3-5-3-5-3---|
E|---------------------------------|---------------------------------|

G|---------------------------------|---------------------------------|
D|---------------------------------|---------------------------------|
A|-5-5-5---3-5-6-2-5---------------|-5-5-5---3-5-6-3-6-------3-------|
E|---------------------------------|---------------------------------|

G|---------------------------------|---------------------------------|
D|---------------------------------|---------------------------------|
A|-5-5-5---3-5-6-2-5---------------|-5-5-5-3-6-5-3---6---3-5-3-5-3---|
E|---------------------------------|---------------------------------|

G|---------------------------------|---------------------------------|
D|---------------------------------|---------------------------------|
A|-5-5-5---3-5-6-2-5---------------|-5-5-5---3-5-6-3-6-------3-------|
E|---------------------------------|---------------------------------|

G|---------------------------------|---------------------------------|
D|---------------------------------|---------------------------------|
A|-5-5-5---3-5-6-2-5---------------|-5-5-5-3-6-5-3---6---3-5-3-5-3---|
E|---------------------------------|---------------------------------|

[Chorus]
G|---------------------------------|---------------------------------|
D|---------------------------------|---------------------------------|
A|-5-5-5---3-5-6-2-5---------------|-5-5-5---3-5-6-3-6-------3-------|
E|---------------------------------|---------------------------------|

G|---------------------------------|---------------------------------|
D|---------------------------------|---------------------------------|
A|-5-5-5---3-5-6-2-5---------------|-5-5-5-3-6-5-3---6---3-5-3-5-3---|
E|---------------------------------|---------------------------------|

[Filter Part]
G|---------------------------------|---------------------------------|
D|---------------------------------|---------------------------------|
A|-----5---5-------5---5-------5---|-5---5-------5---5-------5---5---|
E|---------------------------------|---------------------------------|

G|---------------------------------|---------------------------------|
D|---------------------------------|---------------------------------|
A|-5-5-5---3-5-6-2-5---------------|-5-5-5-3-6-5-3---6---3-5-3-5-3---|
E|---------------------------------|---------------------------------|

G|---------------------------------|---------------------------------|
D|---------------------------------|---------------------------------|
A|-----5---5-------5---5-------5---|-5---5-------5---5-------5---5---|
E|---------------------------------|---------------------------------|

G|---------------------------------|---------------------------------|
D|---------------------------------|---------------------------------|
A|-5-5-5---3-5-6-2-5---------------|-5-5-5-3-6-5-3---6---3-5-3-5-3---|
E|---------------------------------|---------------------------------|

[Verse]
G|---------------------------------|---------------------------------|
D|---------------------------------|---------------------------------|
A|-5-5-5---3-5-6-2-5---------------|-5-5-5---3-5-6-3-6-------3-------|
E|---------------------------------|---------------------------------|

G|---------------------------------|---------------------------------|
D|---------------------------------|---------------------------------|
A|-5-5-5---3-5-6-2-5---------------|-5-5-5-3-6-5-3---6---3-5-3-5-3---|
E|---------------------------------|---------------------------------|

G|---------------------------------|---------------------------------|
D|---------------------------------|---------------------------------|
A|-5-5-5---3-5-6-2-5---------------|-5-5-5---3-5-6-3-6-------3-------|
E|---------------------------------|---------------------------------|

G|---------------------------------|---------------------------------|
D|---------------------------------|---------------------------------|
A|-5-5-5---3-5-6-2-5---------------|-5-5-5-3-6-5-3---6---3-5-3-5-3---|
E|---------------------------------|---------------------------------|

G|---------------------------------|---------------------------------|
D|---------------------------------|---------------------------------|
A|-5-5-5---3-5-6-2-5---------------|-5-5-5---3-5-6-3-6-------3-------|
E|---------------------------------|---------------------------------|

G|---------------------------------|---------------------------------|
D|---------------------------------|---------------------------------|
A|-5-5-5---3-5-6-2-5---------------|-5-5-5-3-6-5-3---6---3-5-3-5-3---|
E|---------------------------------|---------------------------------|

[Chorus]
G|---------------------------------|---------------------------------|
D|---------------------------------|---------------------------------|
A|-5-5-5---3-5-6-2-5---------------|-5-5-5---3-5-6-3-6-------3-------|
E|---------------------------------|---------------------------------|

G|---------------------------------|---------------------------------|
D|---------------------------------|---------------------------------|
A|-5-5-5---3-5-6-2-5---------------|-5-5-5-3-6-5-3---6---3-5-3-5-3---|
E|---------------------------------|---------------------------------|

[Filter Part]
G|---------------------------------|---------------------------------|
D|---------------------------------|---------------------------------|
A|-----5---5-------5---5-------5---|-5---5-------5---5-------5---5---|
E|---------------------------------|---------------------------------|

G|---------------------------------|---------------------------------|
D|---------------------------------|---------------------------------|
A|-5-5-5---3-5-6-2-5---------------|-5-5-5-3-6-5-3---6---3-5-3-5-3---|
E|---------------------------------|---------------------------------|

G|---------------------------------|---------------------------------|
D|---------------------------------|---------------------------------|
A|-----5---5-------5---5-------5---|-5---5-------5---5-------5---5---|
E|---------------------------------|---------------------------------|

G|---------------------------------|---------------------------------|
D|---------------------------------|---------------------------------|
A|-5-5-5---3-5-6-2-5---------------|-5-5-5-3-6-5-3---6---3-5-3-5-3---|
E|---------------------------------|---------------------------------|

[Verse]
G|---------------------------------|---------------------------------|
D|---------------------------------|---------------------------------|
A|-5-5-5---3-5-6-2-5---------------|-5-5-5---3-5-6-3-6-------3-------|
E|---------------------------------|---------------------------------|

G|---------------------------------|---------------------------------|
D|---------------------------------|---------------------------------|
A|-5-5-5---3-5-6-2-5---------------|-5-5-5-3-6-5-3---6---3-5-3-5-3---|
E|---------------------------------|---------------------------------|

G|---------------------------------|---------------------------------|
D|---------------------------------|---------------------------------|
A|-5-5-5---3-5-6-2-5---------------|-5-5-5---3-5-6-3-6-------3-------|
E|---------------------------------|---------------------------------|

G|---------------------------------|---------------------------------|
D|---------------------------------|---------------------------------|
A|-5-5-5---3-5-6-2-5---------------|-5-5-5-3-6-5-3---6---3-5-3-5-3---|
E|---------------------------------|---------------------------------|

G|---------------------------------|---------------------------------|
D|---------------------------------|---------------------------------|
A|-5-5-5---3-5-6-2-5---------------|-5-5-5---3-5-6-3-6-------3-------|
E|---------------------------------|---------------------------------|

G|---------------------------------|---------------------------------|
D|---------------------------------|---------------------------------|
A|-5-5-5---3-5-6-2-5---------------|-5-5-5-3-6-5-3---6---3-5-3-5-3---|
E|---------------------------------|---------------------------------|

[Chorus]
G|---------------------------------|---------------------------------|
D|---------------------------------|---------------------------------|
A|-5-5-5---3-5-6-2-5---------------|-5-5-5---3-5-6-3-6-------3-------|
E|---------------------------------|---------------------------------|

G|---------------------------------|---------------------------------|
D|---------------------------------|---------------------------------|
A|-5-5-5---3-5-6-2-5---------------|-5-5-5-3-6-5-3---6---3-5-3-5-3---|
E|---------------------------------|---------------------------------|

G|---------------------------------|---------------------------------|
D|---------------------------------|---------------------------------|
A|-5-5-5---3-5-6-2-5---------------|-5-5-5---3-5-6-3-6-------3-------|
E|---------------------------------|---------------------------------|

G|---------------------------------|---------------------------------|
D|---------------------------------|---------------------------------|
A|-5-5-5---3-5-6-2-5---------------|-5-5-5-3-6-5-3---6---3-5-3-5-3---|
E|---------------------------------|---------------------------------|

[Outro]
G|---------------------------------|---------------------------------|
D|---------------------------------|---------------------------------|
A|-----5---5-------5---5-------5---|-5---5-------5---5-------5---5---|
E|---------------------------------|---------------------------------|

G|---------------------------------|---------------------------------|
D|---------------------------------|---------------------------------|
A|-5-5-5---3-5-6-2-5---------------|-5-5-5-3-6-5-3---6---3-5-3-5-3---|
E|---------------------------------|---------------------------------|

G|---------------------------------|---------------------------------|
D|---------------------------------|---------------------------------|
A|-----5---5-------5---5-------5---|-5---5-------5---5-------5---5---|
E|---------------------------------|---------------------------------|

G|---------------------------------|---------------------------------|
D|---------------------------------|---------------------------------|
A|-5-5-5---3-5-6-2-5---------------|-5-5-5-3-6-5-3---6---3-5-3-5-3---|
E|---------------------------------|---------------------------------|

G|---------------------------------|---------------------------------|
D|---------------------------------|---------------------------------|
A|-----5---5-------5---5-------5---|-5---5-------5---5-------5---5---|
E|---------------------------------|---------------------------------|

G|---------------------------------|---------------------------------|
D|---------------------------------|---------------------------------|
A|-5-5-5---3-5-6-2-5---------------|-5-5-5-3-6-5-3---6---3-5-3-5-3---|
E|---------------------------------|---------------------------------|

G|---------------------------------|---------------------------------|
D|---------------------------------|---------------------------------|
A|-----5---5-------5---5-------5---|-5---5-------5---5-------5---5---|
E|---------------------------------|---------------------------------|

G|---------------------------------|---------------------------------|
D|---------------------------------|---------------------------------|
A|-5-5-5---3-5-6-2-5---------------|-5-5-5-3-6-5-3---6---3-5-3-5-3---|
E|---------------------------------|---------------------------------|
Suggest correction
Give kudos to tab author, rate the tab!
1 2 3 4 5
comments
print report bad tab
guest
You may want to rate the tab now too:
select rating
Wanna post a correction for this tab? Suggest correction