Oops, an error
Loading. Please wait.

Atravesando chords

version 2
version 2

Whole song

8 views 1 this week
no commentswrite comment
1 2 3 4 5
3 more votes to show rating
add to favorites
×
Save as Personal and add changes to this tab that will be seen only by you. Learn more ›
×
You can save this tab as Personal to edit and correct it or add notes. All changes will be seen only by you. Learn more »
launch autoscroll
font size
0
reset
transpose
0
reset
simplify chords
display chords
guitar tuner
edit
Autoscroll
slow
fast
+/-
esc
set tempo
stop
Strumming
There is no strumming pattern for this song yet. and get +5 IQ
Intro: G5 D5 C5 D5


G5            D5    
No fue imaginación,
C5                  D5
que algún día cambiarías.
G5                 D5
Lo que antes fue pasión,
C5               D5
ahora es mi tontería.


E5       D5          G5
Es necesario seguir así.
E5     D5    G5
Mantenerse firme.
E5       D5          G5
Es necesario seguir así.
E5 D5 G5


G5  D5     E5  C5   D5               
Aaaaaatravesandoooooooo...
G5  D5     E5  C5   D5
Aaaaaatravesandoooooooo...
G5  D5     E5  C5   D5  G5 D5 E5 C5 D5
Aaaaaatravesando la desolación.


G5 D5 C5 D5


G5                  D5
Aunque pasen muchos años.
C5                    D5
Y mi cuerpo sienta el paso.
G5                   D5
Si mis huesos de desgastan,
C5               D5
que haran sus cenizas.


E5       D5          G5
Es necesario seguir así.
E5     D5    G5
Mantenerse firme.
E5       D5          G5
Es necesario seguir así.
E5 D5 G5


G5  D5     E5  C5   D5               
Aaaaaatravesandoooooooo...
G5  D5     E5  C5   D5
Aaaaaatravesandoooooooo...
G5  D5     E5  C5   D5  G5 D5 E5 C5 D5
Aaaaaatravesando la desolación.


|-----------------------------------------------|
|---------------------8---8--------8-7-5--------|
|--------4---4--7-7-7---7----5-5-5-------7-7-7--|
|--5-5-5---5------------------------------------|
|-----------------------------------------------|
|-----------------------------------------------|

|-----------------------------------------------|
|---------------------8---8--------8-7-5--------|
|--------4---4--7-7-7---7----5-5-5-------7-7-7--|
|--5-5-5---5------------------------------------|
|-----------------------------------------------|
|-----------------------------------------------|

|--------------------------------9--------------|
|--------12-10-10-9-7-12-10-9-10----------------|
|-----------------------------------------------|
|-----------------------------------------------|
|-----------------------------------------------|
|-----------------------------------------------|

|-----------------------------------------------|
|--------12-10-9-7-------------6----------------|
|------------------7-7-7-8-7--------------------|
|----------------------------8------------------|
|-----------------------------------------------|
|-----------------------------------------------|


G5  D5     E5  C5   D5               
Aaaaaatravesandoooooooo...
G5  D5     E5  C5   D5
Aaaaaatravesandoooooooo...
G5  D5     E5  C5   D5  G5 D5 E5 C5 D5  G5
Aaaaaatravesando la desolación.


G5  D5     E5  C5   D5               
Aaaaaatravesandoooooooo...
G5  D5     E5  C5   D5
Aaaaaatravesandoooooooo...
G5  D5     E5  C5   D5  G5 D5 E5 C5 D5
Aaaaaatravesando la desolación.


G5 D5 E5 C5 D5
La desolación...
G5 D5 E5 C5 D5
La desolación...
G5 D5 E5 C5 D5
La desolación...


Bueno esto es todo ! ! !, me saqué esta canción,
porque estoy seguro que los acordes y el punteo de
la otra publicación están mal sacados. Y además esta
canción es recontra paja.

            
            
Suggest correction
Creating personal tab
Creating personal tab
You can edit any tab online and save it as your Personal.

You can edit, replace or remove any tab part or add personal notes – all changes will be seen only by you.

Personal tabs can be accessed anytime from any device, even offline.
Learn more »
Give kudos to tab author, rate the tab!
1 2 3 4 5
comments
print report bad tab
guest
Wanna post a correction for this tab? Suggest correction